Cifra Club

Dedicate My Soul

Rafael Bittencourt

Cifra: Principal (violão e guitarra)
Tom: F (forma dos acordes no tom de G) Afinação: D G C F A D
Riff Principal:

      P.M . . . . .     . . . H.A     P.M.
E|----------------------------------------------------|
B|----------------------------------------------------|
G|----------------------------4-----------------------|
D|-2----------------2---------------------------------|
A|-2--2-2-2-2-2-2-2-2---2-2-2---x-x-x-2-2-------------|
E|-0--0-0-0-0-0-0-0-0---0-0-0---x-x-x-0-0-------------|

      P.M . . . . .     . . . H.A     P.M.
E|----------------------------------------------------|
B|----------------------------------------------------|
G|----------------------------4-----------------------|
D|-2----------------2---------------------------------|
A|-2--2-2-2-2-2-2-2-2---2-2-2---x-x-x-2-2-------------|
E|-0-0-0-0-0-0-0-0-0---0-0-0---x-x-x-0-0--------------|

      P.M . . . . .    . . .H.N P.M . . .
E|----------------------------------------------------|
B|----------------------------------------------------|
G|---------------------------7------------------------|
D|-2----------------7---------------------------------|
A|-2--2-2-2-2-2-2-2-5--5-5-5----5-5-5-5---------------|
E|-0--0-0-0-0-0-0-0-5--5-5-5----5-5-5-5-0-------------|

      P.M . . . . .    . . . H.N P.M... .
E|----------------------------------------------------|
B|----------------------------------------------------|
G|---------------------------4------------------------|
D|-5----------------4---------------------------------|
A|-3--3-3-3-3-3-3---2--2-2-2----2-2-2-2---------------|
E|-3--3-3-3-3-3-3-0-2--2-2-2----2-2-2-2-0-------------|

      P.M . . . . .          . . . . .
E|----------------------------------------------------|
B|------------------3--3--3---------------------------|
G|-2----------------0--0--0---------------------------|
D|-2--2-2-2-2-2-2---0--0--0------------2--------------|
A|-0--0-0-0-0-0-0------------3-3-3-3-3-2--------------|
E|----------------0-3--3--3--1-1-1-1-1-0--------------|

E|----------------------------------------------------|
B|----------------------------------------------------|
G|----------------------------------------------------|
D|----------------------------------------------------|
A|----------5~----------------------------------------|
E|-0-6h7--7-------------------------------------------|


Riff 2:
       P.M.  .    .   . . .
E|----------------------------------------------------|
B|----------------------------------------------------|
G|----------------------------------------------------|
D|----------------------------------------------------|
A|-------------5~-----------2~------------------------|
E|-0---0-6h7-7----7---0-3-4---------------------------|

   P.M . .   .
E|----------------------------------------------------|
B|----------------------------------------------------|
G|-------------7/10--10--10-10-9--9-------------------|
D|----------------------------------------------------|
A|-------------5/8---8---8--8--7--7-------------------|
E|-0---0-6h7-7----------------------------------------|

   P.M . .   .    .   . . .
E|----------------------------------------------------|
B|----------------------------------------------------|
G|------------------------------/10--9--9--/14--13~\--|
D|----------------------------------------------------|
A|-------------5~-----------2~--/8---7--7--/12--11~\--|
E|-0---0-6h7-7----7---0-3-4---------------------------|


Primeira Parte:

   P.M.    .  .    .  .    .  .    .  .
E|----------------------------------------------------|
B|----------------------------------------------------|
G|-----------------------------------------2----------|
D|-2--2----2--2----2--2----2--2----2--2----2----------|
A|-2--2----2--2----2--2----2--2----2--2----0----------|
E|-0--0----0--0----0--0----0--0----0--0---------------|

Ponte:

      P.M                . .       . .
E|----------------------------------------------------|
B|--------------3--3----------------------------------|
G|--------------2--0---------2---------2--------------|
D|-4------7--7--0--0--2------2--2------2--------------|
A|-2--2-2-4--5--------2------0--2------0--------------|
E|--------------2--3--0--0-0----0--0-0----2~-3--------|

      P.M       . . .          . .
E|----------------------------------------------------|
B|-----------------------3------------3---------------|
G|-----------------------0---------2--0---------------|
D|-4------7--7--7-7-7----0--2------2--0---------------|
A|-2--2-2-4--5--5-5-5-------2------0------------------|
E|--------------5-5-5-2~-3--0--0-0----3---------------|

Riff 3:

E|----------------------------------------------------|
B|----------------------------------------------------|
G|----------------------------------------------------|
D|----------------------------------------------------|
A|-----5---5-----------5---5--------------------------|
E|-6-7---7---7-6-0-6-7---7---7-6-0--------------------|

E|----------------------------------------------------|
B|----------------------------------------------------|
G|----------------------------------------------------|
D|-----------------7---6\5---5------------------------|
A|-----5---5-7-7h8---8-----7---7-6-5------------------|
E|-6-7---7--------------------------------------------|

E|----------------------------------------------------|
B|----------------------------------------------------|
G|----------------------------------------------------|
D|----------------------------------------------------|
A|-----5---5-----------5---5--------------------------|
E|-6-7---7---7-6-0-6-7---7---7-6-0--------------------|

Repetição:

E|----------------------------------------------------|
B|----------------------------------------------------|
G|----------------------------------------------------|
D|----------------------------------------------------|
A|-----5---5\4---4\3---3\2-------2--------------------|
E|-6-7---7-----6-----5-----2-3-4---0------------------|

E|----------------------------------------------------|
B|----------------------------------------------------|
G|----------------------------------------------------|
D|----------------------------------------------------|
A|-----5---5-----------5---5--------------------------|
E|-6-7---7---7-6-0-6-7---7---7-6-0--------------------|

E|----------------------------------------------------|
B|----------------------------------------------------|
G|----------------------------------------------------|
D|-----------------7---6\5---5------------------------|
A|-----5---5-7-7h8---8-----7---7-6-5------------------|
E|-6-7---7--------------------------------------------|

E|----------------------------------------------------|
B|----------------------------------------------------|
G|----------------------------------------------------|
D|----------------------------------------------------|
A|-----5---5-----------5---5--------------------------|
E|-6-7---7---7-6-0-6-7---7---7-6-0--------------------|

E|----------------------------------------------------|
B|----------------------------------------------------|
G|----------------------------------------------------|
D|----------------------------------------------------|
A|-----5---5\4---4\3---3\2-------2--------------------|
E|-6-7---7-----6-----5-----2-3-4----------------------|

E|----------------------------------------------------|
B|----------------------------------------------------|
G|----------------------------------------------------|
D|-----------------7---6\5---5------------------------|
A|-----5---5-7-7h8---8-----7---7-6-5------------------|
E|-6-7---7--------------------------------------------|

E|----------------------------------------------------|
B|----------------------------------------------------|
G|----------------------------------------------------|
D|----------------------------------------------------|
A|-----5---5\4---4\3---3\2-------2--------------------|
E|-6-7---7-----6-----5-----2-3-4----------------------|

E|----------------------------------------------------|
B|----------------------------------------------------|
G|----------------------------------------------------|
D|-----------------7---6\5---5------------------------|
A|-----5---5-7-7h8---8-----7---7-6-5------------------|
E|-6-7---7--------------------------------------------|

E|----------------------------------------------------|
B|----------------------------------------------------|
G|----------------------------------------------------|
D|---------7---6\5---5\4---4\3-------2----------------|
A|-5-7-7h8---8-----7-----6-----2-3-4------------------|
E|----------------------------------------------------|

E|----------------------------------------------------|
B|-----------------------------10--9--8--7--6--5------|
G|----------------------------------------------------|
D|---------7---6\5---5\4-------7---6--5--4--3--2------|
A|-5-7-7h8---8-----7-----6-5-3------------------------|
E|----------------------------------------------------|

Base do Solo:

   P.M.  . . . . . . . .  . . .
E|----------------------------------------------------|
B|----------------------------------------------------|
G|----------------------------------------------------|
D|----------------------------------------------------|
A|-4--4-----------------------------------------------|
E|-2--2--0-2-0-2-3-2-0-2--3-2-0-----------------------|

   P.M.  . . . . . . . .  . . .
E|----------------------------------------------------|
B|----------------------------------------------------|
G|----------------------------------------------------|
D|----------------------------------------------------|
A|-4--4-----------------------------------------------|
E|-2--2--0-2-0-2-5-3-2-0--3-2-0-----------------------|

   P.M.  . . . . . . . .  . . .
E|----------------------------------------------------|
B|----------------------------------------------------|
G|----------------------------------------------------|
D|----------------------------------------------------|
A|-4--4-------------------------3-2-------------------|
E|-2--2--0-2-0-2-3-2-0-2--3-2-0-----5-3--5-3-2-0--1---|

   P.M.  . . . . . . . .  . . .
E|----------------------------------------------------|
B|----------------------------------------------------|
G|----------------------------------------------------|
D|----------------------------------------------------|
A|-4--4-----------------------------------------------|
E|-2--2--0-2-0-2-3-2-0-2--3-2-0-----------------------|

   P.M.  . . . . . . . .  . . .
E|----------------------------------------------------|
B|----------------------------------------------------|
G|----------------------------------------------------|
D|----------------------------------------------------|
A|-4--4-----------------------------------------------|
E|-2--2--0-2-0-2-5-3-2-0--3-2-0-----------------------|


   P.M.  . . . . . . . .  . . .
E|----------------------------------------------------|
B|----------------------------------------------------|
G|----------------------------------------------------|
D|----------------------------------------------------|
A|-4--4-------------------------3-2-------------------|
E|-2--2--0-2-0-2-3-2-0-2--3-2-0-----5-3--5-3-2-0--1---|


E|----------------------------------------------------|
B|----------------------------------------------------|
G|----------------------------------------------------|
D|-----------------------------6----------------------|
A|-5-4-----7-5-4------------2--4----------------------|
E|-----7-5-------7--0-2-4-5----4----------------------|

Interlúdio:

E|----------------------------------------------------|
B|-5----4--5--7--2--0---------------------------------|
G|-6----4--6--7--2--1---------------------------------|
D|-6----4--7--7--4--2---------------------------------|
A|-4-------4--5--4--2---------------------------------|
E|----4-5--------2--0---------------------------------|

E|----------------------------------------------------|
B|-5--------5--5--7---------0-------------------------|
G|-6--------6--6--7---------1-------------------------|
D|-6--------4--7--7---------2-------------------------|
A|-4-----------4--5------0--2-------------------------|
E|----4--7--5--------0-2----0-------------------------|

Solo:

E|----------14----------------------------------------|
B|-17b19~~-----17p14-17b19--b19r17p14-17b19~-b19r17p14|
G|----------------------------------------------------|
D|----------------------------------------------------|
A|----------------------------------------------------|
E|----------------------------------------------------|

E|----------------------------------------------------|
B|----------------------------------------------------|
G|-17b19~~----14----14-14-----------------------------|
D|------------14-16-14-14-16~~------------------------|
A|---------------16-----------------------------------|
E|----------------------------------------------------|

E|----------------------------14-16-17-17b19~~--------|
B|-------------------14-16-17-------------------------|
G|----------14-16-17----------------------------------|
D|-14-15-16-------------------------------------------|
A|----------------------------------------------------|
E|----------------------------------------------------|

E|-20p19p17------17-----------------------------------|
B|----------20~-----20-18-17~--18~--19...--20...-17...|
G|----------------------------------------------------|
D|----------------------------------------------------|
A|----------------------------------------------------|
E|----------------------------------------------------|

E|-------------17...--17b19-b19...-r17-19b21~~--------|
B|-18...-19...----------------------------------------|
G|----------------------------------------------------|
D|----------------------------------------------------|
A|----------------------------------------------------|
E|----------------------------------------------------|

E|-b21-b21-b21-b21~~----------------------------------|
B|----------------------------------------------------|
G|----------------------------------------------------|
D|----------------------------------------------------|
A|----------------------------------------------------|
E|----------------------------------------------------|
exibições 12.976
Acordes para:
    Composição: Rafael Bittencourt Colaboração e revisão:
    • Caroline Leroy

    0 comentários

    mostrar mais comentários

    Conseguiu tocar?

    1 tocaram 1 ainda não

    Grave um vídeo tocando Dedicate My Soul e mande pra gente!

    00:00 / 00:00
    outros vídeos desta música
    repetir qualidade Automático
    Outros vídeos desta música
    00:00 / 00:00
    Automático
    Capítulos
    • Início
    • Ensinando Riff Principal
    • Ensinando Riff 2
    • Ensinando Primeira Parte
    • Ensinando Ponte
    • Ensinando Riff 3
    • Ensinando Base do Solo
    • Ensinando Interlúdio
    • Ensinando Solo
    • Ensinando Final
    • Encerramento
    OK