Cifra Club

Bombtrack Acoustic

Rage Against The Machine

Cifra: Principal (violão e guitarra)
tom: G
Tabbed by: Bas
Email: *

Tuning: EADGBe

Intro/Verse/Chorus

e|---------------------------------------------------------------------------|
B|---------------------------------------------------------------------------|
G|---------------------------------------------------------------------------|
D|----------------x-xx-------------------------------------------------------|
A|-------7--------x-xx-------------------------------------------------------|
E|7--10-----0-----x-xx-------------------------------------------------------|

Play this before chorus:
e|---------------------------------------------------------------------------|
B|---------------------------------------------------------------------------|
G|---------------------------------------------------------------------------|
D|-7\------------------------------------------------------------------------|
A|-9\------------------------------------------------------------------------|
E|-0\------------------------------------------------------------------------|

Solo 1
e|-------------------------15--14---------------------------14----14----14~--|
B|-------------------------13--12------------------------12----12----12------|
G|-12----14--16--------12------------------12----14--16----------------------|
D|-10----12--14--------10------------------10----12--14----------------------|
A|---------------------------------------------------------------------------|
E|---------------------------------------------------------------------------|

Solo 2
e|9-12-12--8-11-11--7-10-10--6-9-9--6/11\6/11--------------------------------|
B|---------------------------------------------------------------------------|
G|---------------------------------------------------------------------------|
D|---------------------------------------------------------------------------|
A|---------------------------------------------------------------------------|
E|---------------------------------------------------------------------------|

Outro
e|14-------------------------------------------------------------------------|
B|---12----------------------------------------------------------------------|
G|---------------------------------------------------------------------------|
D|---------------------------------------------------------------------------|
A|---------------------------------------------------------------------------|
E|---------------------------------------------------------------------------|



| /  slide up
| \  slide down
| h  hammer-on
| p  pull-off
| ~  vibrato
| +  harmonic
| x  Mute note

don't hestitate mailing me for comments etc. : *
===============================================================================
Compositor não encontrado.
7.195 exibições
    • ½ Tom
    • A
    • Bb
    • B
    • C
    • Db
    • D
    • Eb
    • E
    • F
    • F#
    • G
    • Ab
  • Adicionar à lista

    0 comentários

    Ver todos os comentários

    Conseguiu tocar?

    0 Tocaram 0 Ainda não

    Grave um vídeo tocando Bombtrack Acoustic e nos envie!

    00:00 / 00:00
    Outros vídeos desta música
    Repetir Qualidade Automático
    Outros vídeos desta música
    00:00 / 00:00
    Automático

    Cifra Club Pro

    Aproveite o Cifra Club com benefícios exclusivos e sem anúncios
    Cifra Club Pro
    Aproveite o Cifra Club com benefícios exclusivos e sem anúncios
    OK