Bombtrack

Rage Against The Machine

Composição de: Brad Wilk / Tim Commerford / Tom Morello / Zack de la Rocha
tom: A
Introdução:

Riff 1:

E|---------------------------------------------------
B|---------------------------------------------------
G|-----------------------------0---------------------
D|---2-0---0---------2-0---0-2-----------------------
A|-------2---2-0---------2---------------------------
E|-0-------------3-0---------------------------------

E|---------------------------------------------------
B|---------------------------------------------------
G|---------------------------------------------------
D|---2-0---0---------2-0---0-------------------------
A|-------2---2-0---------2---2-----------------------
E|-0-------------3-0-----------3-2-------------------

E|---------------------------------------------------
B|---------------------------------------------------
G|-----------------------------0h2p0h2p0-------------
D|---2-0---0---------2-0---0-2-----------------------
A|-------2---2-0---------2---------------------------
E|-0-------------3-0---------------------------------

E|---------------------------------------------------
B|---------------------------------------------------
G|---------------------------------------------------
D|---2-0---0---------2-0---0-------------------------
A|-------2---2-0---------2---2-----------------------
E|-0-------------3-0-----------3-2-------------------

E|---------------------------------------------------
B|---------------------------------------------------
G|-----------------------------0---------------------
D|---2-0---0---------2-0---0-2-----------------------
A|-------2---2-0---------2---------------------------
E|-0-------------3-0---------------------------------

E|---------------------------------------------------
B|---------------------------------------------------
G|---------------------------------------------------
D|---2-0---0---------2-0---0-------------------------
A|-------2---2-0---------2---2-----------------------
E|-0-------------3-0-----------3-2-------------------

E|---------------------------------------------------
B|---------------------------------------------------
G|-----------------------------0h2p0h2p0-------------
D|---2-0---0---------2-0---0-2-----------------------
A|-------2---2-0---------2---------------------------
E|-0-------------3-0---------------------------------

E|---------------------------------------------------
B|---------------------------------------------------
G|---------------------------------------------------
D|---2-0---0-----------------------------------------
A|-------2---2-0---0---------------------------------
E|-0-------------3-0---------------------------------

Riff 2:

E|---------------------------------------------------
B|---------------------------------------------------
G|---------------------------------------------------   (3x)
D|-------4-------------4--2--------4----------6--5--4
A|-2--4-----2-4---2-4--------2--4-----2-4-----4--3--2
E|-0--2-----0-2---0-2--------0--2-----0-2--0--4--3--2

Hey yo, it's just another bombtrack
Hey yo, it's just another bombtrack, yeah

E|---------------------------------------------------
B|---------------------------------------------------
G|---------------------------------------------------
D|-------4-------------4--2--------4----------6------
A|-2--4-----2-4---2-4--------2--4-----2-4-----4------
E|-0--2-----0-2---0-2--------0--2-----0-2--0--4------

It goes a one, two, three

Primeira Parte:

E|---------------------------------------------------
B|---------------------------------------------------
G|---------------------------------------------------   (3x)
D|---------------------------------------4-2---------
A|-------------------------------------------4-3-2---
E|-2--2--0--2-2--2--2--5b---2--2--0--2-0-----------5b

Hey yo, it's just another bombtrack
And suckas be thinkin' that they can fade this
But I'm gonna drop it at a higher level
'Cause I'm inclined to stoop down
Hand out some beat-downs
Cold runna train on punk ho's that
Think they run the game
But I learned to burn that bridge and delete
Those who compete...at a level that's obsolete

E|---------------------------------------------------
B|---------------------------------------------------
G|---------------------------------------------------
D|---------------------------------------------------
A|---------------------------------------------------
E|-2--2--0--2-2--2--2--5b---2--2--0--2-2-------------

Instead I warm my hands
Upon the flames of the flag
As I recall our downfall
And the business that burned us all

E|---------------------------------------------------
B|---------------------------------------------------
G|---------------------------------------------------   (3x)
D|---------------------------------------4-2---------
A|-------------------------------------------4-3-2---
E|-2--2--0--2-2--2--2--5b---2--2--0--2-2-----------5b

See through the news
And the views that twist reality
Enough I call the bluff
Fuck Manifest destiny
Landlords and power whores
On my people they took turns
Dispute the suits I ignite
And then watch 'em burn
With the thoughts from a militant mind
Hardline, hardline after hardline

E|---------------------------------------------------
B|---------------------------------------------------
G|---------------------------------------------------
D|---------------------------------------------------
A|---------------------------------------------------
E|-2--2--0--2-2--2--2--5b---2--2--0--2-2-------------

Landlords and power whores
On my people they took turns
Dispute the suits I ignite
And then watch 'em burn

Primeiro Refrão:

(Riff 2)

Burn, burn, yes ya gonna burn
Burn, burn, yes ya gonna burn
Burn, burn, yes ya gonna burn
Burn, burn, yes ya gonna burn (yes ya gonna)
Burn, burn, yes ya gonna burn
Burn, burn, yes ya gonna burn
Burn, burn, yes ya gonna burn
Burn, burn, yes ya gonna burn

It goes a one, two, three

Segunda Parte:

E|---------------------------------------------------
B|---------------------------------------------------
G|---------------------------------------------------   (3x)
D|---------------------------------------4-2---------
A|-------------------------------------------4-3-2---
E|-2--2--0--2-2--2--2--5b---2--2--0--2-0-----------5b

Another funky radical bombtrack
Started as a sketch in my notebook
And now dope hooks make punks take another look
My thoughts ya hear and ya begin to fear
That ya card will get pulled if ya interfere
With the thoughts from a militant mind
Hardline, hardline after hardline

E|---------------------------------------------------
B|---------------------------------------------------
G|---------------------------------------------------
D|---------------------------------------------------
A|---------------------------------------------------
E|-2--2--0--2-2--2--2--5b---2--2--0--2-0b2r----------

Landlords and power whores
On my people they took turns
Dispute the suits I ignite
And then watch 'em burn

Segundo Refrão:

E|---------------------------------------------------
B|---------------------------------------------------
G|---------------------------------------------------   (4x)
D|-------4-------------4--2--------4----------6--5--4
A|-2--4-----2-4---2-4--------2--4-----2-4-----4--3--2
E|-0--2-----0-2---0-2--------0--2-----0-2--0--4--3--2

Burn, burn, yes ya gonna burn
Burn, burn, yes ya gonna burn
Burn, burn, yes ya gonna burn
Burn, burn, yes ya gonna burn (yes ya gonna)
Burn, burn, yes ya gonna burn
Burn, burn, yes ya gonna burn
Burn, burn, yes ya gonna burn
Burn, burn, yes ya gonna burn

   P.M . . . . . . . . . . . . . .
E|---------------------------------------------------
B|---------------------------------------------------
G|---------------------------------------------------   (2x)
D|---------------------------------------------------
A|-2-2-2-2-2-2-2-2-2-2-2-2-2-2-2-2-------------------
E|-0-0-0-0-0-0-0-0-0-0-0-0-0-0-0-0-------------------

Ponte:

E|---------------------------------------------------
B|---------------------------------------------------
G|---------------------------------------------------
D|---------------------------------------------------
A|---------------------------------------------------
E|2p0-2p0-5b7--2p0-2p0-2-x-x-x-x-2p0-2p0-5b7--2p0-2p0

E|---------------------------------------------------
B|---------------------------------------------------
G|---------------------------------------------------
D|---------------------------------------------------
A|-4p0-3p0-2p0---------------------------------------
E|---------------------------------------------------

Solo:

E|---------------------------------------------------
B|---14~---16~---14~---16~---14~---16~---------------
G|-x-14~-x-16~-x-14~-x-16~-x-14~-x-16~---------------
D|-x-----x-----x-----x-----x-----x-------------------
A|---------------------------------------------------
E|---------------------------------------------------

E|---------------------------------------------------
B|-14-17b19-b19-b19-b19-b19r17~~---------------------
G|---------------------------------------------------
D|---------------------------------------------------
A|---------------------------------------------------
E|---------------------------------------------------

E|---------------------------------------------------
B|---14~---16~---14~---16\---------------------------
G|-x-14~-x-16~-x-14~-x-16\---------------------------
D|-x-----x-----x-----x-------------------------------
A|---------------------------------------------------
E|---------------------------------------------------

E|---17-16-17-16b17~~--------------------------------
B|---------------------------------------------------
G|-x-------------------------------------------------
D|-x-------------------------------------------------
A|---------------------------------------------------
E|---------------------------------------------------

Terceiro Refrão:

E|---------------------------------------------------
B|---------------------------------------------------
G|---------------------------------------------------   (4x)
D|-------4-------------4--2--------4----------6--5--4
A|-2--4-----2-4---2-4--------2--4-----2-4-----4--3--2
E|-0--2-----0-2---0-2--------0--2-----0-2--0--4--3--2

Burn, burn, yes ya gonna burn
Burn, burn, yes ya gonna burn
Burn, burn, yes ya gonna burn
Burn, burn, yes ya gonna burn
Burn, burn, yes ya gonna burn
Burn, burn, yes ya gonna burn
Burn, burn, yes ya gonna burn
Burn, burn, yes ya gonna burn

E|---------------------------------------------------
B|---------------------------------------------------
G|---------------------------------------------------
D|-4--3--2-------------------------------------------
A|-2--1--0-------------------------------------------
E|-2--1--0-------------------------------------------

Solo final:

E|---------------------------------------------------
B|-14-----14-----14-----14-----14--------------------
G|-16b18~-16b18~-16b18--16b18--16b18-----------------
D|---------------------------------------------------
A|---------------------------------------------------
E|---------------------------------------------------

E|---------------------------------------------------
B|---------------------------------------------------
G|---------------------------------------------------
D|-x--x--x--x--x--x--x--x--x--x----------------------
A|-x--x--x--x--x--x--x--x--x--x----------------------
E|-x--x--x--x--x--x--x--x--x--x----------------------

E|---------------------------------------------------
B|-/10-10-10----10-10-10----10-10-10----10-10-10-----
G|-----------11----------11----------11----------11--
D|---------------------------------------------------
A|---------------------------------------------------
E|---------------------------------------------------

E|---------------------------------------------------
B|-10-10-10----10-10-10------------------------------
G|----------11----------11\--------------------------
D|---------------------------6--5--4----4--3--2------
A|---------------------------4--3--2----2--1--0------
E|---------------------------4--3--2----2--1--0------
Página 1 / 1

Letras e título
Acordes e artista

resetar configurações
OK