Bombtrack

Rage Against The Machine

Composição de: Brad Wilk / Tim Commerford / Tom Morello / Zack de la Rocha
tom: C

Transcribed by: Adam Arnold
Email: *

i'm not sure whether this is the proper version morello plays, but i find this the easiest 
way to play this truly amazing track. it's all played 1 string at a time.

this is done on basic tuned, so no need to fiddle about.

intro
-------------------------------|----------------------------------------------
-------------------------------|----------------------------------------------
-----------------------------0-|----------------------------------------------
---2-0---0---------2-0---0-2---|---2-0---0---------2-0---0--------------------
-------2---2-0---------2-------|-------2---2-0---------2---2------------------
-0-------------3-0-------------|-0-------------3-0-----------3-2--------------
                                                                        

----------------------------------|-------------------------------------------
----------------------------------|-------------------------------------------
-----------------------------0202-|-------------------------------------------
---2-0---0---------2-0---0-2------|----2-0---0---------2-0---0----------------
-------2---2-0---------2----------|--------2---2-0---------2---2--------------
-0-------------3-0----------------|--0-------------3-0-----------3-2----------
(repeat the intro once)                                                               


Chorus/start of verse
--------------------|-------------------|-------------------------------------
--------------------|-------------------|-------------------------------------
--------------------|-------------------|-------------------------------------
------4---------4-2-|-----4-------------|-------------------------------------
--------------------|-------------4-3-2-|-------------------------------------
--0-2---0-2-0-2-----|-0-2---0-2-0-------|-------------------------------------
                                                                              
                               
--------------------|---------------------------------------------------------
--------------------|---------------------------------------------------------
--------------------|---------------------------------------------------------
------4---------4-2-|-----4-------4-------------------------------------------
--------------------|---------------------------------------------------------
--0-2---0-2-0-2-----|-0-2---0-2-0---------------------------------------------
                                                                              
Verse 1
-------------------|---------------------|------------------------------------
-------------------|---------------------|------------------------------------
-------------------|---------------------|------------------------------------
-------------------|---------------------|------------------------------------
-------------------|---------9-7---------|------------------------------------
-2-2-0-2-2-2-2-5b6-|-2-2-0-2-----9-8-7-5-|------------------------------------
                                                                              
(chorus)

(verse 2, same as verse 1)

(chorus)

Solo
-----------------------------------|--------------------------------|---------
-----------------------------------|--------------------------------|---------
-----------------------------------|--------------------------------|---------
-----------------------------------|--------------------------------|---------
-----------------------------------|---------------------4---3---2--|---------
-2-0-2-0-5b6-2-0-2-0-2-x-x-x-x-x-x-|-2-0-2-0-5b6-2-0-2-0---4---3---2|---------
                                                                              
(Chorus)


you can figure out the amounts the riffs are played, it isn't rocket science :D

all above is the basic riffs played throughout the song. occasionally morello will add 
something here and there,
so listen out for them.

please feel free to email me with any comments. good or bad.
Página 1 / 1

Letras e título
Acordes e artista

resetar configurações
OK