Cifra Club

Aprenda

Fistfull Of Steel

Rage Against The Machine

Cifra: Principal (violão e guitarra)
Tom: E
[Intro]
                       H.N.                    H.N
E|-------------------0--5--------------------0--5-12-|
B|-------------------0--5--------------------0--5-12-|
G|-------------------0--5--------------------0--5-12-|
D|--2-4-4-x-x-2-4-4---------2-4-4-x-x-2-4-4----------|
A|--2-4-4-x-x-2-4-4---------2-4-4-x-x-2-4-4----------|
E|--0-2-2-x-x-0-2-2---------0-2-2-x-x-0-2-2----------|

          H.N.
E|---0--0--12---|
B|---0--0--12---|
G|---0--0--12---|
D|---------12---|
A|---------12---|
E|---------12---|

[Primeira parte]

E|---21b22r21---|
B|--------------|
G|--------------|
D|--------------|
A|--------------|
E|--------------|

[Refrão]

          H.N.
E|---0--0--12---|
B|---0--0--12---|
G|---0--0--12---|
D|---------12---|
A|---------12---|
E|---------12---|

[Segunda parte]

E|---21b22r21---|
B|--------------|
G|--------------|
D|--------------|
A|--------------|
E|--------------|

E|-----------|
B|-----------|
G|-----------|  (13x)
D|-----------|
A|--9-8-7-0--|
E|-----------|

E|--------------------------|
B|--------------------------|
G|--------------------------|  (4x)
D|--------------------------|
A|--2-4---7--9-8-7-0-9-8-7--|
E|--0-2-x-5-----------------|

E|-----------|
B|-----------|
G|-----------|  (16x)
D|-----------|
A|--9-8-7-0--|
E|-----------|

E|--------------------------|
B|--------------------------|
G|--------------------------|
D|--------------------------| (13x)
A|--2-4---7--9-8-7-0-9-8-7--|
E|--0-2-x-5-----------------|

[Final]

E|---------------------|
B|---------------------|
G|-----------3b4r3-----|
D|---------------------|
A|--2-4---7---------4--|
E|--0-2-x-5---------2--|
Composição de Rage Against the Machine / Zack de la Rocha
Colaboração e revisão:
  • Alisson Pereira
2.232 exibições
    • ½ Tom
    • A
    • Bb
    • B
    • C
    • Db
    • D
    • Eb
    • E
    • F
    • F#
    • G
    • Ab
  • Adicionar à lista

    0 comentários

    Mostrar mais comentários

    Conseguiu tocar?

    1 Tocaram 1 Ainda não

    Grave um vídeo tocando Fistfull Of Steel e mande pra gente!

    00:00 / 00:00
    outros vídeos desta música
    repetir qualidade Automático
    Outros vídeos desta música
    00:00 / 00:00
    Automático

    Cifra Club Pro

    Aproveite o Cifra Club com benefícios exclusivos e sem anúncios
    7 dias grátis
    Cifra Club Pro
    Aproveite o Cifra Club com benefícios exclusivos e sem anúncios
    7 dias grátis
    OK