Cifra Club

Ghost Of Tom Joad

Rage Against The Machine

Tab de baixo: Principal
DROP D TUNING

During the verse you don't need to play the open D, it just makes the song sound deeper.


No bass during guitar intro...

G|-----------------------|
D|-----------------------| X4
A|---5-3-0-------3---0-3-|
D|-0-------5-3-0---5-----|

------|
------| Let ring for about 7 seconds
------|
-0----|

-------------|
-------------| X16
-5---3---0-3-|
-0-----5-----|

-----------------------|
-----------------------| X4
---5-3-0-------3---0-3-|
-0-------5-3-0---5-----|

------|
------| Let ring for about 15 seconds
------|
-0----|

-------------|
-------------| X20
-5---3---0-3-|
-0-----5-----|

-----------------------|
-----------------------| X4
---5-3-0-------3---0-3-|
-0-------5-3-0---5-----|

------|
------| Let ring for about 14 seconds
------|
-0----|

-------------|
-------------| X12
-5---3---0-3-|
-0-----5-----|

------------|
------------| Play for about 29 seconds
------------|
-XXXXXXXXXX-

-----------------------------|
-----------------------------| X8
---5-3-0-------3---0-3-------|
-0-------5-3-0---5-----------|
-----------------------------|

------ Let ring for about 18-| seconds
-----------------------------|
-0---------------------------|
Composição de Bruce Springsteen
832 exibições

0 comentários

Ver todos os comentários

Conseguiu tocar?

0 Tocaram 0 Ainda não

Grave um vídeo tocando Ghost Of Tom Joad e nos envie!

00:00 / 00:00
Outros vídeos desta música
Repetir Qualidade Automático
Outros vídeos desta música
00:00 / 00:00
Automático

Cifra Club Pro

Aproveite o Cifra Club com benefícios exclusivos e sem anúncios
Cifra Club Pro
Aproveite o Cifra Club com benefícios exclusivos e sem anúncios
OK