Cifra Club

Aprenda

Guerilla Radio

Rage Against The Machine

Cifra: Versão 3 (violão e guitarra)
tom: D
guitar guy: Gerald Kisoun
e-mail: *

intro/chorus:you have to use a tremolo effect for 
the intro, or just strum twice for each note.
|--------------------|
|--------------------|
|--------------------|
|---------------2-4--|
|-2-4-4-2-4-2-4-0-2--|
|-0-2-2-0-2-0-2------|

verse:rock the wah pedal for each beat.
|--------------------------|
|--------------------------|
|--------------------------|
|--------------------------|
|--------------------------|
|-0-2--0-2-2--0-2--0-2-2---|

bridge:you could either rock a wah 
back and forth, or rock a whammy.
|---------------------|
|---------------------|
|---------------------|
|---------------------|
|----------------0-2--|
|--0-2-2-0-2-0-2------|

solo:rock a wah for each beat.
|------------------------|
|------------------------|X3
|------------------------|
|--14--12-14--12-14-12---|
|--14--12-14--12-14------|
|------------------------|

|------------------------------|
|------------------------------|
|------------------------------|X3
|--14--12-14--12-b14--r14-12---|
|--14--12-14--12------------14-|
|------------------------------|

|--15-14--12-11---/16\----|
|--15-14--12-11---/16\----|
|--15-14--12-11---/16\----|
|-------------------------|
|-------------------------|
|-------------------------|

outro:pause between each set. And when it 
gets heavier, use scrapes between sets.
|----------------------------------------------|
|----------------------------------------------|
|----------------------------------------------|
|----------------------------------------------|
|----------------------------------------------|
|--0-2--0--/14\---0-2--0--/14\---0-2--0--/14\--|

incase your a beginner: the intro is the beginning,
the verse is what you play while they sing,
and the bridge is what comes before the solo 
(and if you don't know what a solo is, you shouldn't
be playing), and the outro is the end.

key:
b= bend
r= release
/= slide up
\= slide down

ps: use lottsa distortion. 

Composição de Brad Wilk / Tim Commerford / Tom Morello / Zack de la Rocha
511 exibições
    • ½ Tom
    • A
    • Bb
    • B
    • C
    • Db
    • D
    • Eb
    • E
    • F
    • F#
    • G
    • Ab
  • Adicionar à lista

    0 comentários

    Ver todos os comentários

    Conseguiu tocar?

    0 Tocaram 0 Ainda não

    Grave um vídeo tocando Guerilla Radio e nos envie!

    00:00 / 00:00
    Outros vídeos desta música
    Repetir Qualidade Automático
    Outros vídeos desta música
    00:00 / 00:00
    Automático

    Cifra Club Pro

    Aproveite o Cifra Club com benefícios exclusivos e sem anúncios
    Cifra Club Pro
    Aproveite o Cifra Club com benefícios exclusivos e sem anúncios
    OK