Cifra Club

Aprenda

Guerilla Radio

Rage Against The Machine

Cifra: Versão 5 (violão e guitarra)
tom: D
James, D*
This is the real one:
Standard Tuning:

W/Distortion
1------------------------------------------------- |
2------------------------------------------------- |
3-------------------------------------------------.|
4-------------------------------------------------.|7x 
5------------------0-2-------------------0-2------ |
6---0-2-2-0-2-2-0---------0-2-2-0-2-2-0----------- |

1-----------------------------------------------------
2-----------------------------------------------------
3--2----------1---------------------------------------
4-----------------------------------------------------
5-----------------------------------------------------
6-----2---0--------2----0-----------------------------

1----------------------------------------------------|
2----------------------------------------------------|
3---------------------------------------------------.|
4---------------------------------------------------.|
5--------------------------------------------------- |
6--0-2---0-0-2----0-0-2---0---0-2--0-0-2---0-0-2---- |
                Rock wah pedal forward on each beat

1-----------------------------------------------------
2-----------------------------------------------------
3------------------2----------------------------------
4--4--2---4----2-4------------------------------------
5-----------------------------------------------------
6-----------------------------------------------------

1------------------------------------------------- |
2------------------------------------------------- |
3-----4---2--4-----4^4----2-----------------------.|
4-----4---2--4--------------4---------------------.|3x
5------------------------------------------------- |
6------------------------------------------------- |

1-------------7---6---4----3--------------------------
2-------------7---6---4----3--------------------------
3-------------7---6---4----3--------------------------
4-----------------------------------------------------
5-----------------------------------------------------
6-----------------------------------------------------

Composição de Brad Wilk / Tim Commerford / Tom Morello / Zack de la Rocha
312 exibições
    • ½ Tom
    • A
    • Bb
    • B
    • C
    • Db
    • D
    • Eb
    • E
    • F
    • F#
    • G
    • Ab
  • Adicionar à lista

    0 comentários

    Ver todos os comentários

    Conseguiu tocar?

    0 Tocaram 0 Ainda não

    Grave um vídeo tocando Guerilla Radio e nos envie!

    00:00 / 00:00
    Outros vídeos desta música
    Repetir Qualidade Automático
    Outros vídeos desta música
    00:00 / 00:00
    Automático

    Cifra Club Pro

    Aproveite o Cifra Club com benefícios exclusivos e sem anúncios
    Cifra Club Pro
    Aproveite o Cifra Club com benefícios exclusivos e sem anúncios
    OK