Guerilla Radio

Rage Against The Machine

Composição de: Brad Wilk / Tim Commerford / Tom Morello / Zack de la Rocha
Intro (0:08)
G|-----------------|
D|-----------------|
A|-----------------|
E|-x-x-x-x-x-x-x-x-|

Chorus                       On the eighth time play this*
G|-------------------          G|-2------1----|   (dont play this on the
D|-------------------          D|-------------|    third chorus)
A|---------------0-2-          A|-------------|
E|-0-2-2-0-2-0-2-----          E|---2--0---2--|

Verse*
G|--2-2--4-4--5-5--------------|
D|-----------------------------|
A|-----------------------------|       *This part great if you use a wah-wah pedal
E|-----------------2-----------|

Play at 1:01 only*
G|--------------2-2--4-4--5-5-------|
D|-4p2-----4-4----------------------|
A|-----4p2--------------------------|
E|----------------------------2-----|

Outro
G|----------------------------------|
D|--------4/\--------4/\--------4/\-|
A|----------------------------------|
E|-0-2--0-----0-2--0-----0-2--0-----|

After 3 times of the Outro*
G|-----------------------------------x-x-x-x-x-x-x-x-|
D|--------4/\---------4/\---------4/-x-x-x-x-x-x-x-x-|
A|-----------------------------------x-x-x-x-x-x-x-x-|
E|-0-2--0-----0-2--0-----0-2--0------x-x-x-x-x-x-x-x-|

Amazing song, really easy and really fun. Please rate!
Página 1 / 1

Letras e título
Acordes e artista

resetar configurações
OK