I M Housin

Rage Against The Machine

Composição de: EPMD
tom: D
E|----------------------------------------------------------------------------
B|----------------------------------------------------------------------------
G|----------------------------------------------------------------------------
D|----------------------------------------------------------------------------
A|------10----7----6----5----2----1-------------------------------------------
E|-0-----------------------------------3/5------------------------------------
                                      
|----------------------------------------------------------------------------
|----------------------------------------------------------------------------
|--9----12----9---9---9----12------------------------------------------------
|----------------------------------------------------------------------------
|--7----10----7---7---7----10------------------------------------------------
|----------------------------------------------------------------------------
      
|----------------------------------------------------------------------------
|----------------------------------------------------------------------------
|----------------------------------------------------------------------------
|---2---2--------------------------------------------------------------------
|---2---2---4x-----------------7-----7-----7----7---------10v----------------
|---0---0-------------------------0-----0-----0----0-0-----------------------
   
|----------------------------------------------------------------------------
|----------------------------------------------------------------------------
|----------------------------------------------------------------------------
|--2--2-------0---0----------------------------------------------------------
|--------0h2---------2p0-----------------------------------------------------
|--------------------------3-------------------------------------------------

Página 1 / 1

Letras e título
Acordes e artista

resetar configurações
OK