Take The Power Back

Rage Against The Machine

Composição: Rage Against the Machine / Zack de la Rocha
Tom: C
 
Drop D Tuning

Bass Intro
Guitar Intro
Part 1
Chorus
Part 2
Chorus
Solo
Part 3
Part 4
Part 5
Chorus
No more lies end part
End part 2

INTRO
Baixo afinado em D

         riff 1 4x   |           riff 2 4x          |  Guitar ends(4X)
e|-------------------|------------------------------|----------------------|
B|-------------------|------------------------------|----------------------|
G|-------------------|------------------------------|----10----------------|
D|-------------------|-------------5------------5---|----10----------------|
A|-------------------|-------5/-7-------5/-7--------|-----8----------------|
E|---0--0------------|--0-0-------------------------|----------------------|
dando pausas depois  |dando pausas no final do riff |
dos 2 toques.        |na quarta vez não tem pausa.  |
                  
     Riff 3                       riff  4x                  riff 5  6x
e|--------------------------|---------------------------|--------------------|
b|--------------------------|---------------------------|--------------------|
g|--------------------------|---------------------------|--------------------|
D|-------------5--------5---|-------------x-------------|--------------------|
A|--------5/-7-----5/-7-----|--------7----5--6--7-------|--------------------|
E|--0--0--------------------|---0--0---7----------0--0--|--7--6--5--------5--|
Aqui continua o riff 2, isso|na última vez termina na   |-----------3--5-----|
é repetido em toda a        |nota que tem o x.
primeira parte da música.   |

Na segunda parte da música repete o riff 1 -> riff 2 -> riff 3 
até o refrão, daí vai pro riff 4. No solo repete o riff 3.
Quando acabar o solo faz o riff 5.Na parte 3 repete o riff 1  6x.
Na parte 4 faz o riff 3.Faz o riff 2 no refrão e na parte que ele 
canta NO MORE LIES não tem baixo, faz esse riff abaixo quando ele 
falar o último no more lies.

        6x
e|----------------------------------------|
b|----------------------------------------|
g|----------------------------------------|
D|----------------------------------------|
A|--7--6--5----7--6--5---7--6--5--5-5-5-5-|
E|----------------------------------------|


GUITAR INTRO,SOLO,PART 5
  play this part 8 times
e|-------------------------------------------------------------------|
B|-------------------------------------------------------------------|
G|--7-7-7-7-7-7-7---5/--10-------------------------------------------|
D|--7-7-7-7-7-7-7---5/--10-------------------------------------------|
A|--5-5-5-5-5-5-5---3/---8-------------------------------------------|
D|-------------------------------------------------------------------|

PART 1, 2
  play this part 15 times|  Riff ends like this
e|-----------------------|-------------------------------------------|
B|-----------------------|-------------------------------------------|
G|--7-7-7-7-7-7-7---5----|--7-7-7-7-7--------------------------------|
D|--7-7-7-7-7-7-7---5----|--7-7-7-7-7--------------------------------|
A|--5-5-5-5-5-5-5---3----|--5-5-5-5-5--------------------------------|
D|-----------------------|-------------------------------------------|

Chorus
bend last chord 1 full step  |  Riff ends like this
e|---------------------------|---------------------------------------|
B|---------------------------|---------------------------------------|
G|--7--5/--12b---------------|---7--5--------------------------------|
D|--7--5/--12b---------------|---7--5--------------------------------|
A|--5--3/--10b---------------|---5--3--------------------------------|
D|---------------------------|---------------------------------------|

PART 3 
  1st guitar             |2nd guitar plays it startin at the 3th time
  Play this part 5 times | Play this part 2 times 
e|-----------------------|-------------------------------------------|
B|-----------------------|-------------------------------------------|
G|--7--6--5--7--5--6-----|----7--9--10--12--12-----------------------|
D|--7--6--5--7--5--6-----|----7--9--10--12--12-----------------------|
A|--5--4--3--5--3--4-----|-------------------------------------------|
D|-----------------------|-------------------------------------------|

PART 4
e|----------|--------------------------------------------------------|
B|----------|--------------------------------------------------------|
G|---7--7---|--------------------------------------------------------|
D|---7--7---|--------------------------------------------------------|
A|---5--5---|--------------------------------------------------------|
D|----------|--------------------------------------------------------|

END PART 
play this part 4 times  ... No more lies...
e|-------------------------------------------------------------------|
B|-------------------------------------------------------------------|
G|---10/---9-9-9---10-10-10---12-12-12---10-10-10--------------------|
D|----x/---x-x-x----x--x--x----x--x--x----x--x--x--------------------|
A|----8/---7-7-7----8--8--8---10-10-10----8--8--8--------------------|
D|-------------------------------------------------------------------|

END PART 2
play this part 5 times             |  play this at last time
e|---------------------------------|---------------------------------|
B|---------------------------------|---------------------------------|
G|--7-6-5---7-6-5---7-6-5---5-5-5--|--7------------------------------|
D|--7-6-5---7-6-5---7-6-5---5-5-5--|--5------------------------------|
A|--5-4-3---5-4-3---5-4-3---3-3-3--|--5------------------------------|
D|---------------------------------|---------------------------------|

LYRICS
BASS INTRO
GUITAR INTRO

-PART 1
In the right light, study becomes insight
But the systems that dissed us
Teaches us to read and write
So-called facts are fraud
They want us to allege and pledge
And bow down to thier God
Lost the culture, the culture lost
Spun our minds and through time
Ignorance has taken over
We gotta take the power back
Bam! here\'s the plan
Mother fuck Uncle Sam
Step back, I know who I am
Raise up your ear, I\'ll drop the style and clear
It\'s the beats and lyrics they fear
The rage is relentless
We need a movement with a quickness
You are the witness of change
And to counteract
We gotta take the power back

-Refrão
We gotta take the power back
We gotta take the power back

-PART 2
The present curriculums
I put my fist in \'em
Eurocentric every last on e of \'em
See right through the red, white and blue disguise
With lecture, I puncture the structure of lies
Installed in our minds and attempting
To hold us back
We\'ve gotta take the power back
\'Cause holes in our spirit are causin\' tears and fears
One-sides stories for years and years and years
I\'m inferior? Who\'s inferior?
Yea, we needa check the interior
Of the system who cares about only one culture
And that is why
We gotta take the power back

refrão
-SOLO

-PART 3
The teacher stands in front of the class
But the lesson plan he can\'t recall
The student\'s eyes don\'t perceive the lies
Bouncing off every fucking wall
His composure is well kept
I guess he fears playing the fool
The complacent students sit and listen to the
Bullshit that he learned in school

-PART 4
Europe ain\'t my rope to swing on
Can\'t learn a thing from it
Yet we hang from it
Gotta get it, gotta get it together then
Like the mother fuckin\' weathermen
To expose and close the doors on those who try
To strangle and mangle the truth
\'Cause the circle of hatred continues unless we react
We gotta take the power back

Refrão
-No more lies
Página 1 / 1

Letras e título
Acordes e artista

resetar configurações
OK