Vietnow

Rage Against The Machine

Composição: Rage Against the Machine / Zack de la Rocha
Tom: G
E|-------------------------------------------------|
B|-------------------------------------------------|
G|-------------------------------------------------|
D|-------------------------------------------------|
A|-4---4---7-7-----4---4---7-7---------------------|
E|-2---2---5-5-----2---2---5-5---------------------|
  
 
E|---------------------------------|---------------------------------|
B|---------------------------------|---------------------------------|
G|---------------------------------|---------------------------------|
D|---------------------------------|---------------------------------|
A|-4-4-4-4-4-4-4-4-4---4---7-7-----|-4---4---7-7---------------------|
E|-0-2-2-0-2-2-2-2-2---2---5-5-----|-2---2---5-5---------------------|

                                                               
E|---------------------------------|                                          
B|---------------------------------|                                          
G|---------------------------------|                                          
D|---------------------------------|                                          
A|-4-4-4-4-4-4-4-4-4---4---7-7-----|                                          
E|-0-2-2-0-2-2-2-2-2---2---5-5-----|                                          

 
E|-------------------------------------------------|
B|-------------------------------------------------|
G|-------------------------------------------------|
D|-------------------------------------------------|
A|-4---4---7-7-------------------------------------|
E|-2---2---5-5-------------------------------------|


E|-------------------------------------------------|
B|-------------------------------------------------|
G|-------------------------------------------------|
D|-------------------------------------------------|
A|-4---4---7-7-----4---4---7-7---------------------|
E|-2---2---5-5-----2---2---5-5---------------------|
                                              
 
E|---------------------------------|---------------------------------|
B|---------------------------------|---------------------------------|
G|---------------------------------|---------------------------------|
D|---------------------------------|---------------------------------|
A|-4-4-4-4-4-4-4-4-4---4---7-7-----|-4---4---7-7---------------------|
E|-0-2-2-0-2-2-2-2-2---2---5-5-----|-2---2---5-5---------------------|


E|---------------------------------|
B|---------------------------------|
G|---------------------------------|
D|---------------------------------|
A|-4-4-4-4-4-4-4-4-----------------|
E|-0-2-2-0-2-2-2-2-----------------|


E|---------------------------------|
B|---------------------------------|
G|---------------------------------|
D|-4-4-----------------------------|
A|-----------------------*---------|
E|-----0---2---0---5-----6r5---0---|
 
E|---------------------------------|
B|---------------------------------|
G|---------------------------------|
D|-4-4-----------------------------|
A|---------------------------------|
E|-----0---2---0---5-----6r5---0---|

E|---------------------------------|
B|---------------------------------|
G|---------------------------------|
D|-4-4-----------------------------|
A|---------------------------------|
E|-----0---2---0---5b6-----4---0---|
                                  
 
E|---------------------------------|
B|---------------------------------|
G|---------------------------------|
D|-4-4-x-x-x-x-x-x-x-x-x-x-x-x-x-x-|
A|-----x-x-x-x-x-x-x-x-x-x-x-x-x-x-|
E|-----x-x-x-x-x-x-x-x-x-x-x-x-x-x-|


E|---------------------------------|
B|---------------------------------|
G|---------------------------------|
D|---------------------------------|
A|-4-4-4-4-4-4-4-4-----------------|
E|-0-2-2-0-2-2-2-2-----------------|


E|---------------------------------| 
B|-8---7---8---7---8---7---8---7---|
G|-6---6---6---6---6---6---6---6---|
D|-4---4---4---4---4---4---4---4---|
A|-9-9-----------------------------|
E|---------------------------------|
      

E|---------------------------------| 
B|-8---7---8---7---8---7---8---7---|
G|-6---6---6---6---6---6---6---6---|
D|-4---4---4---4---4---4---4---4---|
A|---------------------------------|
E|---------------------------------|

E|---------------------------------| 
B|-8---7---8---7-------------------|
G|-6---6---6---6-------------------|
D|-4---4---4---4---4-2-4---4-2-4---|
A|---------------------------------|
E|---------------------------------|
                   
  
E|---------------------------------| 
B|---------------------------------|
G|---------------------------------|
D|-----4---------------------------|
A|-3---------------3---------------|
E|---------------------0-----------|

 
E|---------------------------------| 
B|---------------------------------|
G|---------------------------------|
D|-----4---------------------------|
A|-----------------3---------------|
E|---------------------0-----------|

 
E|---------------------------------| 
B|---------------------------------|
G|---------------------------------|
D|-----4---------------------------|
A|-----------------3---------------|
E|---------------------0-----------|

 
E|---------------------------------| 
B|---------------------------------|
G|---------------------------------|
D|-----4-----------4-2-4---4-2-4---|
A|---------------------------------|
E|---------------------------------|


E|-------------------------------------------------|
B|-------------------------------------------------|
G|-------------------------4-/-6-------------------|
D|-------------------------------------------------|
A|-4---4---7-7-----4---4---2-/-4-------------------|
E|-2---2---5-5-----2---2---------------------------|

 
E|---------------------------------|---------------------------------|
B|---------------------------------|---------------------------------|
G|---------------------------------|---------4-/-6-------------------|
D|---------------------------------|----------------------3rd time---|
A|-4-4-4-4-4-4-4-4-4---4---7-7-----|-4---4---2-/-4------------5------|
E|-0-2-2-0-2-2-2-2-2---2---5-5-----|-2---2--------------------3------|

                                                              
E|-----------------|                 
B|-----------------|                 
G|-----------------|                
D|-----------------|                 
A|--4-------5------|                 
E|--2-------3------|                 
                  

E|---------------------------------|
B|---------------------------------|
G|---------------------------------|
D|---------------------------------|
A|-4-4-4-4-4-4-4-4---x-x---x---x---|
E|-0-2-2-0-2-2-2-2---x-x---x---x---|

        
E|---------------------------------|
B|---------------------------------|
G|-------15------------------------|
D|-------tr14----------------------|
A|-------13tr----------------------|
E|---------12----------------------|


E|---------------------------------|
B|---------------------------------|
G|---------------------------------|
D|---------------------------------|
A|-4-4-4-4-4-4-4-4---x-x---x---x---|
E|-0-2-2-0-2-2-2-2---x-x---x---x---|
 
E|---------------------------------|
B|---------------------------------|
G|---------------------------------|
D|-(14)----------------------------|
A|--tr----------------(continua)---|
E|-(12)----------------------------|

E|---------------------------------|
B|---------------------------------|
G|---------------------------------|
D|---------------------------------|
A|-4-4-4-4-4-4-4-4---x-x---x---x---|
E|-0-2-2-0-2-2-2-2---x-x---x---x---|

E|---------------------------------|
B|---------------------------------|
G|---------------------------------|
D|---------------------------------|
A|-4-4-4-4--5-------4-------5------|
E|-0-2-2-0--3-------2-------3------|


E|---------------------------------|
B|---------------------------------|
G|---------------------------------|
D|---------------------------------|
A|--4-------5-------4-------5------|
E|--2-------3-------2-------3------|
                                  

      
E|---------------------------------|
B|---------------------------------|
G|---------------------------------|
D|-(14)--------------15------------|
A|--tr---------------tr------------|
E|-(12)--------------13------------|
Página 1 / 1

Letras e título
Acordes e artista

resetar configurações
OK