Cifra Club

Aprenda

Vietnow

Rage Against The Machine

Tab de baixo: Principal
Fill 1
G:---------------------------|
D:---------------------------|
A:--------0-0--------0-0--R--|
E:--2--2-------2--2----------|


Fill 2 					    Fill 3
G:-----------------------------------------|-------------------|
D:-----------------------------------------|-------------------|
A:------------------------0-0-------0-0-R--|-------------------|
E:---2-2-2-2-2-2-2-2-2--2-----2--2---------|-0-2-2-0-2-2-2-2—R-|

Riff 1 
G:----------------------------|-----------------------------|
D:----------------------------|-----------------------------|
A:--9-9-----------------------|-9-9-------------------------|
E:-------0--2--0--5b(6)(5)--0-|------0--2--0--5b(6)r(5)--0--|

     					Fill 4
G:-----------------------------|---------------------|
D:-----------------------------|---------------------|
A:-----------------------------|---------------------|
E:-2-2-0-2-0-5b(6)r(5)-4-0-2-2-|-X-X-X-X-X-X-X-X-X-X-|

Riff 2
G:-------------------------------------------------------------|
D:-------------------------------------------------------------|
A:-0--/9--3-----3--/9--3-----3--/9--3-----3--/9--9-7-9--9-7-9--|
E:-----------2------------2------------2-----------------------|

Riff 3
G:-----------------------------------------------------|
D:-----------------------------------------------------|
A:-----2-----2-0---2-0---2-0-------0-0--R--------0-0---|    
E:--2------------2-----2-----2--2----------2--2--------|
Riff 4
G:----------------------------|-------------|	
D:*---------------------------|-------------|	
A:*---------------------------|-------------|	
E:--0-2-2-0-2-2-2-2-X-X--X-X--|--X-2--X-3---|	

Fill 1		
Fill 4		
Fill 3 ( 20x)	 
Riff 2 ( 4x )		
Fill 2 ( 3x )	
Riff 1		
Riff 1		 
Riff 3 ( 4x )		
Fill 3 ( 20x)	
Fill 3 ( 20x)	
Fill 4		 
Fill 2 ( 4x )		 	
Riff 1		
Fill 2 ( 3x ) 
Riff 1	 
Riff 4 ( 10x)


_______________________________________________________
Contribuição: Gabriel Fernandes do Nascimento(gabrielonline@globo.com)
Composição de Rage Against the Machine / Zack de la Rocha
1.731 exibições

0 comentários

Mostrar mais comentários

Conseguiu tocar?

1 Tocaram 0 Ainda não

Grave um vídeo tocando Vietnow e mande pra gente!

00:00 / 00:00
outros vídeos desta música
repetir qualidade Automático
Outros vídeos desta música
00:00 / 00:00
Automático
OK