Cifra Club

Hard Came The Rain

Rag'n'Bone Man

Cifra: Principal (violão e guitarra)
tom: G
Verso:

(Riff 1)
     Em
E|-----------------------------------|
B|-----------------------------------|
G|-----------------------------------|
D|-----0h2p0----0----0-------0h2~----|
A|--2-------------------------2------|
E|--0-----------3----2----0----------| x4

Oh my love we almost had it all
Oh so high we rose we were bound to fall
Through all this I never noticed
I never noticed the clouds gather round
Oh how fast we fall, how slow we drown

Pré-Refrão:

(Riff 2)
          C                                          D
E|----3-------------------------------5-----------|
B|----3-------------------------------7-----------|
G|----5-------------------------------7-----------|
D|----5-------------------------------7-----------|
A|----3-------------------------------5-----------|
E|-------------------------------------------------|
 (You pray for ...                it's over ....   )

You pray for the storm all your life
It's over and nothing survives

Refrão:

D7                                Em       G     A
      Hard Came The Rain ... Rain
Em                             G            A
   Washed all the love right out
                Em       G        A
 of your veins ... veins 
Em                          G            A
   I watched the flood roll in 
C              D                 Em
and take your hand from mine
                         C               D
So you could save your own life

Interlúdio:
  
(RIff 1) x2

Verso:
  
Em                          G              A
We grew life, two broken souls entwined
   
E|------------------------------------|
B|------------------------------------|
G|-------7--6-------------------------| 
D|----9--------7--/--5--9--7----------| 
A|----------------------------7--7~---|
E|------------------------------------|

Em                G         A
Same heartbeat, I feel fell out of time

E|------------------------------------|
B|------------------------------------|
G|-------7--6-------------------------| 
D|----7--------7--/--5--9--7----------| 
A|----------------------------7--3~---|
E|------------------------------------|

Pré-Refrão:

(Riff 2)
         C
You pray for the storm all your life
      D
It's over and nothing survives

Refrão:
 
D7                                Em       G     A
      Hard Came The Rain ... Rain
Em                             G            A
   Washed all the love right out
                Em       G        A
 of your veins ... veins 
Em                          G            A
   I watched the flood roll in 
C              D                 Em
and take your hand from mine
                         C               D
So you could save your own life

Ponte:

E|-------------------------------------------------|
B|-------------------------------------------------|
G|-------------------------------------------------|
D|---------------------------------5^--------------|
A|--7//-------5-7-5-7^-----------------------------|
E|------------------------------------------7--5//-| x6

I begged, I begged that you'd turn me away
To you there was nothing to say
I begged, I begged that you'd turn me away
To you there was nothing to say

Pré-Refrão:

         C
You pray for the storm all your life
      D
It's over and nothing survives

(Solo base Refrão)

Refrão:

D7                                Em       G     A
      Hard Came The Rain ... Rain
Em                             G            A
   Washed all the love right out
                Em       G        A
 of your veins ... veins
Em                          G            A
   I watched the flood roll in 
C              D                 Em
and take your hand from mine
                         C               D
So you could save your own life

(Riff 1 4x)
Compositor não encontrado.
Colaboração e revisão:
  • Lucas Carvalho
752 exibições
    • ½ Tom
    • A
    • Bb
    • B
    • C
    • Db
    • D
    • Eb
    • E
    • F
    • F#
    • G
    • Ab
  • Adicionar à lista

    0 comentários

    Ver todos os comentários

    Conseguiu tocar?

    0 Tocaram 0 Ainda não

    Grave um vídeo tocando Hard Came The Rain e nos envie!

    00:00 / 00:00
    Outros vídeos desta música
    Repetir Qualidade Automático
    Outros vídeos desta música
    00:00 / 00:00
    Automático

    Cifra Club Pro

    Aproveite o Cifra Club com benefícios exclusivos e sem anúncios
    Cifra Club Pro
    Aproveite o Cifra Club com benefícios exclusivos e sem anúncios
    OK