Cifra Club

A Mais Pedida

Raimundos

Tab de baixo: Principal
exibições 74.006
Introdução

Parte 01 de 02 (3x)

G|----------------------------------------------|
D|---------5-5-5-5--7-7-7-7--7-7-7-7------------|
A|-3-3-3-3--------------------------------------|
E|----------------------------------------------|

Parte 02 de 02
i
G|----------------------------------------------|
D|----------------------------------------------|
A|-5-5-5-5--5-5-5-5--5-5-5-5--5-5-5-5-----------|
E|----------------------------------------------|

Segunda parte

Por favor, seu locutor...

Parte 01 de 04

G|----------------------------------------------|
D|----------------------------------------------|
A|-3-3-3-3--3-3-3-3--3-3-3-3--3-3-3-3-----------|
E|----------------------------------------------|

G|----------------------------------------------|
D|----------------------------------------------|
A|-3-3-3-3--3-3-3-3--3-3-3-3--3-3-3-------------|
E|----------------------------------0-----------|

parte 02 de 04

G|----------------------------------------------|
D|----------------------------------------------|
A|----------------------------------------------|
E|-1-1-1-1--1-1-1-1--1-1-1-1--1-1-1-1-----------|

G|----------------------------------------------|
D|----------------------------------------------|
A|---------------3-3--------------3-3-----------|
E|-5--5---3-3-3------5--5---3-3-3---------------|

Parte 03 de 04

G|----------------------------------------------|
D|----------------------------------------------|
A|-5-5-5-5--5-5-5-5--5-5-5-5--5-5-5-5-----------|
E|----------------------------------------------|

G|----------------------------------------------|
D|----------------------------------------------|
A|---------------3-3--------------3-3-----------|
E|-5--5---3-3-3------5--5---3-3-3---------------|

Parte 04 de 04

G|----------------------------------------------|
D|----------------------------------------------|
A|-5-5-5-5--5-5-5-5--5-5-5-5--5-5-5-5-----------|
E|----------------------------------------------|

Solo de Guitarra

Parte 01 de 02 ( tocar 2x )

G|----------------------------------------------|
D|----------------------------------------------|
A|-3-3-3-3--3-3-3-3--5-5-5-5--5-5-5-5-----------|
E|----------------------------------------------|

G|----------------------------------------------|
D|----------------------------------------------|
A|-8-8-8-8--8-8-8-8--0-0-0-0--0-0-0-0-----------|
E|----------------------------------------------|

G|----------------------------------------------|
D|----------------------------------------------|
A|-5-5-5-5--5-5-5-5-----------------------------|
E|-------------------3-3-3-3--3-3-3-3-----------|

G|----------------------------------------------|
D|----------------------------------------------|
A|----------------------------------------------|
E|-3-3-3-3-3--3-3-3-3---------------------------|

Parte 02 de 02

G|----------------------------------------------|
D|----------------------------------------------|
A|----------------------------------------------|
E|-3-3-3-3--3-3-3-3--3-3-3-3--3-3-3-3-----------|

Refrão 02 

Meu cabelo é ruim, mas meu terno é de lin'...

Parte 01 de 04 ( tocar 2x )

G|----------------------------------------------|
D|----------------------------------------------|
A|-3-3-3-3--3-3-3-3--8-8-8-8--8-8-8-8-----------|
E|----------------------------------------------|

Parte 02 de 04

G|----------------------------------------------|
D|----------------------------------------------|
A|-5-5-5-5--5-5-5-5-----------------------------|
E|------------------3-3-3-3--3-3-3-3------------|

Parte 03 de 04 ( tocar 2x )

G|----------------------------------------------|
D|----------------------------------------------|
A|-3-3-3-3--3-3-3-3--8-8-8-8--8-8-8-8-----------|
E|----------------------------------------------|

Parte 04 de 04

G|----------------------------------------------|
D|----------------------------------------------|
A|-5--------------------------------------------|
E|----3-----------------------------------------|

Introdução 03 ( Final )

Parte 01 de 02 ( tocar 3x )

G|----------------------------------------------|
D|---------5-5-5-5--7-7-7-7--7-7-7-7------------|
A|-3-3-3-3--------------------------------------|
E|----------------------------------------------|

Parte 02 de 02

G|----------------------------------------------|
D|----------------------------------------------|
A|-5--------------------------------------------|
E|----------------------------------------------|
Composição: Canisso / Digão / Fred / RodolfoColaboração e revisão:

0 comentários

    mostrar mais comentários

    Conseguiu tocar?

    17tocaram0ainda não

    Grave um vídeo tocando A Mais Pedida e mande pra gente!

    00:00 / 00:00
    outros vídeos desta música
    repetirqualidadeautomática
    Outro vídeos desta música
      00:00 / 00:00
      automática
      Capítulos
      • Tocando a música
      • Apresentação / Equipamentos
      • Introdução - Parte 1 de 2
      • Introdução - Parte 2 de 2
      • Primeira Parte - Parte 1 de 4
      • Primeira Parte - Parte 2 de 4
      • Primeira Parte - Parte 3 de 4
      • Primeira Parte - Parte 4 de 4
      • Dicas Pré-Refrão e Refrão
      • Pré-Refrão - Parte 1 de 2
      • Pré-Refrão - Parte 2 de 2
      • Refrão - Parte 1 de 2
      • Refrão - Parte 2 de 2
      • Dicas Intro 2 - Solo
      • Segunda Parte - Parte 1 de 4
      • Segunda Parte - Parte 2 de 4
      • Segunda Parte - Parte 3 de 4
      • Segunda Parte - Parte 4 de 4
      • Solo - Parte 1 de 2
      • Solo - Parte 2 de 2
      • Dicas Segundo Refrão - Intro 3
      • Segundo Refrão - Parte 1 de 4
      • Segundo Refrão - Parte 2 de 4
      • Segundo Refrão - Parte 3 de 4
      • Segundo Refrão - Parte 4 de 4
      • Introdução 3 - Parte 1 de 2
      • Introdução 3 - Parte 2 de 2
      • Encerramento
      OK