Cifra Club

Aprenda

Esporrei Na Manivela

Raimundos

Tab de baixo: Principal
ESPORREI NA MANIVELA by RAIMUNDOS. Álbum: Lavô tá novo
Essa música mostra a mistura de hardcore/crossover com influências do forró e mostra
 também uma criação simples, mas genial da corda Ré com a nota Ré (A5)
A parte forró é feita sempre la corda La, com as notas Ré e Do
Já a parte hardcore e crossover são executadas completamente na corda Ré, fazendo com 
que,
a música tenha dois estilos diferentes que mudam somente de corda p/corda
Se você tem um pedal "distortion", use-o na introdução. Na entrada da guitarra, use o 
som limpo.
Você pode alternar para cada parte, uma "clean" e outra com "distorção".
Dará mais ênfase a música, tornando-a mais agradável e energética...
A música é grande, mas consiste basicamente em seis partes: algumas são repetidas
com bastante frequência, outras um pouco menos, mas não são difíceis de decorar e 
executar,
é claro, terá que escutar antes a música para compreender cada parte da TAB...
Espero que esteja correto, divirta-se tocando e qualquer erro, escreva...
Calangos do cerrado ainda apavoram véi...

intro: '00m14s'
G-|--------------------|--------------------|-------------------|------------------->
D-|----------------3h4-|----------------3h4-|---------------3h4-|---------------3h4->
A-|-55-5/33-55-5/2-----|-55-5/33-55-5/2-----|-55-5/3-55-5/2-----|-55-5/3-55-5/2----->
D-|--------------------|--------------------|-------------------|------------------->

G-|--------------------|--------------------|-------------------|------------------->
D-|----------------3h4-|----------------3h4-|---------------3h4-|---------------3h4->
A-|-55-5/33-55-5/2-----|-55-5/33-55-5/2-----|-55-5/3-55-5/2-----|-55-5/3-55-5/2----->
D-|--------------------|--------------------|-------------------|------------------->

G-|--------------------|--------------------|-------------------|------------------->
D-|----------------3h4-|----------------3h4-|---------------3h4-|---------------3h4->
A-|-55-5/33-55-5/2-----|-55-5/33-55-5/2-----|-55-5/3-55-5/2-----|-55-5/3-55-5/2----->
D-|--------------------|--------------------|-------------------|------------------->

G-|--------------------|--------------------|-------------------|------------------->
D-|----------------3h4-|----------------3h4-|---------------3h4-|---------------3h4->
A-|-55-5/33-55-5/2-----|-55-5/33-55-5/2-----|-55-5/3-55-5/2-----|-55-5/3-55-5/2----->
D-|--------------------|--------------------|-------------------|------------------->

G-|---------------|-------------|-------------|------------->
D-|---------------|-------------|-------------|------------->
A-|-0-00-33/22-55-|-00-33/22-55-|-00-33/22-55-|-00-33/22-55->
D-|---------------|-------------|-------------|------------->

G-|----------|----------|----------|----------|----------|----------|----------|---------->
D-|----------|----------|----------|----------|----------|----------|----------|---------->
A-|----------|----------|----------|----------|----------|----------|----------|---------->
D-|-00-55-33-|-00-55-33-|-00-55-33-|-00-55-33-|-00-55-33-|-00-55-33-|-00-55-33-|-00-55-33->

G-|----------|----------|----------|----------|----------|----------|----------|---------->
D-|----------|----------|----------|----------|----------|----------|----------|---------->
A-|----------|----------|----------|----------|----------|----------|----------|---------->
D-|-00-55-33-|-00-55-33-|-00-55-33-|-00-55-33-|-00-55-33-|-00-55-33-|-00-55-33-|-00-55-33->

G-|----------|---->
D-|----------|---->
A-|----------|---->
D-|-00-55-33-|-0~->

verso 1: ("Entrei no trem, esporrei na manivela...")
G-|------------|------------|-----------------------|------------|------------|----------------->
D-|------------|------------|-----------------------|------------|------------|----------------->
A-|------------|------------|-----------------------|------------|------------|----------------->
D-|-0-0--5-4-3-|-0-0--5-4-3-|-0-0--5-4-3--5/66-5/66-|-0-0--5-4-3-|-0-0--5-4-3-|-0-0--5-4-3-11/00>

G-|------------|-------------------------|------------|------------|------------|----->
D-|------------|-------------------------|------------|------------|------------|----->
A-|------------|-------------------------|------------|------------|------------|----->
D-|-0-0--5-4-3-|-0-0--5-4-3--5/66-6-5/66-|-0-0--5-4-3-|-0-0--5-4-3-|-0-0--5-4-3-|-00~->

riff de passagem (instrumental):
G-|--------------|--------------|--------------------------------------------->
D-|--------------|--------------|--------------------------------------------->
A-|--------------|--------------|--------------------------------------------->
D-|-0--4-5-6-5-4-|-0--4-5-6-5-4-|-0--4-5-6-5-4--6-5-4--6-5-4--6-5-4--6-5-4--0->

verso 2: ("O coletivo é muito bom para sarrar...")
G-|------------|------------|------------|-----------|------------|------------>
D-|------------|------------|------------|-----------|------------|------------>
A-|------------|------------|------------|-----------|------------|------------>
D-|-0-0--5-4-3-|-0-0--5-4-3-|-0-0--5-4-3-|-5/66-5/66-|-0-0--5-4-3-|-0-0--5-4-3->

G-|------------|-----------|----------------------------------------------->
D-|------------|-----------|----------------------------------------------->
A-|------------|-----------|----------------------------------------------->
D-|-0-0--5-4-3-|-5/66-5/66-|-4/5-4/5-4h5-4h5-4/5-4h5-4h5-4/5-4h5-4h5-4/5-3->

G-|------------|------------|------------|------------|------>
D-|------------|------------|------------|------------|------>
A-|------------|------------|------------|------------|------>
D-|-0-0--5-4-3-|-0-0--5-4-3-|-0-0--5-4-3-|-0-0--5-4-3-|-0~~~->

ponte:
G-|--------------------|--------------------|-------------------|------------------->
D-|----------------3h4-|----------------3h4-|---------------3h4-|---------------3h4->
A-|-55-5/33-55-5/2-----|-55-5/33-55-5/2-----|-55-5/3-55-5/2-----|-55-5/3-55-5/2----->
D-|--------------------|--------------------|-------------------|------------------->

G-|--------------------|--------------------|-------------------|------------------->
D-|----------------3h4-|----------------3h4-|---------------3h4-|---------------3h4->
A-|-55-5/33-55-5/2-----|-55-5/33-55-5/2-----|-55-5/3-55-5/2-----|-55-5/3-55-5/2----->
D-|--------------------|--------------------|-------------------|------------------->

G-|--------------------|-------------------->
D-|----------------3h4-|----------------3h4->
A-|-55-5/33-55-5/2-----|-55-5/33-55-5/2----->
D-|--------------------|-------------------->

G-|---------------------|---------------------|---------------------|---------------------|---->
D-|---------------------|---------------------|---------------------|---------------------|---->
A-|---------------------|---------------------|---------------------|---------------------|---->
D-|-0--1/2-1/2-4--3-2-1-|-0--1/2-1/2-4--3-2-1-|-0--1/2-1/2-4--3-2-1-|-0--1/2-1/2-4--3-2-1-|-0~->

final: ("Seu delega, é o seguinte seu delegado...")
G-|--------------------|--------------------|-------------------|------------------->
D-|----------------3h4-|----------------3h4-|---------------3h4-|---------------3h4->
A-|-55-5/33-55-5/2-----|-55-5/33-55-5/2-----|-55-5/3-55-5/2-----|-55-5/3-55-5/2----->
D-|--------------------|--------------------|-------------------|------------------->

G-|--------------------|--------------------|-------------------|------------------->
D-|----------------3h4-|----------------3h4-|---------------3h4-|---------------3h4->
A-|-55-5/33-55-5/2-----|-55-5/33-55-5/2-----|-55-5/3-55-5/2-----|-55-5/3-55-5/2----->
D-|--------------------|--------------------|-------------------|------------------->

G-|--------------------|--------------------|-------------------|------------------->
D-|----------------3h4-|----------------3h4-|---------------3h4-|---------------3h4->
A-|-55-5/33-55-5/2-----|-55-5/33-55-5/2-----|-55-5/3-55-5/2-----|-55-5/3-55-5/2----->
D-|--------------------|--------------------|-------------------|------------------->

G-|----------|----------|----------|----------|----------|----------|----------|---------->
D-|----------|----------|----------|----------|----------|----------|----------|---------->
A-|----------|----------|----------|----------|----------|----------|----------|---------->
D-|-00-55-33-|-00-55-33-|-00-55-33-|-00-55-33-|-00-55-33-|-00-55-33-|-00-55-33-|-00-55-33->

G-|----------|----------|----------|----------|----------|----------|----------|---------->
D-|----------|----------|----------|----------|----------|----------|----------|---------->
A-|----------|----------|----------|----------|----------|----------|----------|---------->
D-|-00-55-33-|-00-55-33-|-00-55-33-|-00-55-33-|-00-55-33-|-00-55-33-|-00-55-33-|-00-55-33->

G-|----------|----------|-----|--------------------------------------------||
D-|----------|----------|-----|--------------------------------------------||
A-|----------|----------|-----|--------------------------------------------||
D-|-00-55-33-|-00-55-33-|-0~--|-12-11-10--9-10-11-10-9--3-2-1--0-1h3-1--0~-||


_______________________________________________________
Contribuição: Eduardo Lima(fleafieldy@hotmail.com)
Composição de Bonolo / Digão / Fred / Guilherme / Paulinho Mattos / Rodolfo
25.619 exibições

0 comentários

Ver todos os comentários

Conseguiu tocar?

5 Tocaram 0 Ainda não

Grave um vídeo tocando Esporrei Na Manivela e nos envie!

00:00 / 00:00
Outros vídeos desta música
Repetir Qualidade Automático
Outros vídeos desta música
00:00 / 00:00
Automático

Cifra Club Pro

Aproveite o Cifra Club com benefícios exclusivos e sem anúncios
Cifra Club Pro
Aproveite o Cifra Club com benefícios exclusivos e sem anúncios
OK