I Saw You Saying (That You Say That You Saw)

Raimundos

Composição: Rodolfo / Gabriel Thomaz
Tom: D
(intro)  Bm D A  A G A

(solo) (A F#m)


E|------------------------------------|--------------------------------------|
B|-2/5\2---2--------2-2-2-2-2---------|-2/5\2-----2--------2-2-2-2-2---------|
G|-------2------2-4-----------4-2-4-2-|---------2------2-4-----------4-2-4-2-|
D|------------4-----------------------|--------------4-----------------------|
A|------------------------------------|--------------------------------------|
E|------------------------------------|--------------------------------------|


           A  F#m    A                      F#m
    Reconheci... a Madonna ali parada no jardim
             A  F#m          A                      F#m
    Não resisti... fui perguntar o que ela achava de mim
 C#m                        D
    Eu não sei falar inglês
 Bm                E
    Ela não entende uma palavra em português
    A                          F#m
    I saw you saying that you say that you saw
    A                          F#m
    I saw you saying that you say that you saw (I feel good)
  Bm            D
    I feel good because you put your butt on me
  Bm            D
    I feel good because you put your butt on me

(solo) (A F#m)


E|-------------------------------------5-2---2---------2-------------------------------------|
B|-2/5\2----2--------2-2-2-2-2-------------5---5-2---2---5-5/7\5-0-2--------2-2-2-2-2--------|
G|--------2------2-4-----------4-2-4-2-------------2--------------------2-4-----------4-2-4-2|
D|-------------4------------------------------------------------------4----------------------|
A|-------------------------------------------------------------------------------------------|
E|-------------------------------------------------------------------------------------------|


 C#m                        D
    Perguntei para o meu pai
 Bm
    O que ela me disse
 E
    Ela disse, meu rapaz|
    A                          F#m
    I saw you saying that you say that you saw (I saw you saying)
    A                          F#m
    I saw you saying that you say that you saw (I feel good)
  Bm            D
    I feel good because you put your butt on me
  Bm            D
    I feel good because you put your butt on me
  Bm            D
    I feel good because you put your butt on...

(solo) (F#m A F#m A F#m  Bm D E)


E|-----5-0-2-2p0-0----------------------------5-4-2p0---2-2-----2-2----------------5-5-4-4-4-5-4-|
B|---2-------------2-2-2/3\2----------------2---------2-----2-2-----3-3-----2/3-5--5-5-5-5-5-5-5-|
G|-2-------------------------2/4\2--------------------------------------4444---------------------|
D|---------------------------------4-4/7-7-------------------------------------------------------|
A|-----------------------------------------------------------------------------------------------|
E|-----------------------------------------------------------------------------------------------|


   A              F#m                   A
    The hula hula song make me feel so strong
                  F#m                    A
    The hula hula hey goodbye I'm going away
                  F#m                   A
    The hula hula song make me feel so strong
                  F#m                    Bm
    The hula hula hey goodbye I'm going away (a há)
D                               Bm
    Because you put your butt on me (a há)
D                                 Bm
    You know you put your butt on me (a há)
D
    You know you put your butt on me
              A    F#m  D    E    A     A6
    Shalalala yeah yeah yeah yeah yeah
Página 1 / 1

Letras e título
Acordes e artista

resetar configurações
variar acorde