Cifra Club

I Saw You Saying (That You Say That You Saw)

Raimundos

Tab de baixo: Principal
[Introdução]

Parte 1 de 3
G|----------------------------------------------|
D|----------------------------------------------|
A|-2--2-2-2-2-2-0--5--5-5-5-5--5-5--0-----------|
E|----------------------------------------------|

Parte 2 de 3 ( 3x )
G|----------------------------------------------|
D|----------------------------------------------|
A|----------------------------------------------|
E|-5-5-5-5--5-5-7-5--2-2-2-0-2-2-2-7------------|

Parte 3 de 3
G|----------------------------------------------|
D|----------------------------------------------|
A|----------------------------------------------|
E|-5-5-5-5--5-5-7-5--2-2-2-2--2-2-2-2-----------|


[Primeira parte]

Reconheci... a Madonna ali parada no jardim...

Parte 1 de 3 ( 4x )
G|----------------------------------------------|
D|----------------------------------------------|
A|----------------------------------------------|
E|-5-5-5-5--5-5-5-0--2-2-2-2--2-2-2-0-----------|

Parte 2 de 3
G|----------------------------------------------|
D|----------------------------------------------|
A|-4-4-4-4--4-4-4-4--4-4-4-4--4-4-4-4-----------|
E|----------------------------------------------|

G|----------------------------------------------|
D|----------------------------------------------|
A|-5-5-5-5--5-5-5--5-5-5-5--5-5-5-0-------------|
E|----------------------------------------------|

Parte 3 de 3
G|----------------------------------------------|
D|----------------------------------------------|
A|-2-2-2-2--2-2-2-2--2-2-2-2--2-2-2-0-----------|
E|----------------------------------------------|

G|----------------------------------------------|
D|----------------------------------------------|
A|-7-7-7-7--7-7-7-7--7-7-7-7--7-7-7-7-----------|
E|----------------------------------------------|


[Refrão]

I saw you saying that you say that you saw...

Parte 1 de 3 
G|----------------------------------------------|
D|----------------------------------------------|
A|----------------------------------------------|
E|-5-5-5-5--5-5-7-5--2-2-2-0-2-2-2-7------------|

G|----------------------------------------------|
D|----------------------------------------------|
A|---------------------------------0------------|
E|-5-5-5-5--5-5-7-5--2-2-2-0-2-2-2--------------|

Parte 2 de 3 
G|----------------------------------------------|
D|----------------------------------------------|
A|-2-2-2-2--2-2-2-0--5-5-5-5--5-5-5-0-----------|
E|----------------------------------------------|

G|----------------------------------------------|
D|----------------------------------------------|
A|-2-2-2-2--2-2-2-0--5-5-5-5--5-5-5-5-----------|
E|----------------------------------------------|

Parte 3 de 3
G|----------------------------------------------|
D|----------------------------------------------|
A|-0-0-0-0--0-0-0-0--0-0-0-0--0-0-0-0-----------|
E|----------------------------------------------|


[Introdução 2]

Parte 1 de 2 ( 3x )
G|----------------------------------------------|
D|----------------------------------------------|
A|----------------------------------------------|
E|-5-5-5-5--5-5-7-5--2-2-2-0-2-2-2-7------------|

Parte 2 de 2
G|----------------------------------------------|
D|----------------------------------------------|
A|----------------------------------------------|
E|-5-5-5-5--5-5-7-5--2-2-2-2--2-2-2-2-----------|


[Segunda parte]

Perguntei para o meu pai …

Parte 1 de 2
G|----------------------------------------------|
D|----------------------------------------------|
A|-4-4-4-4--4-4-4-4--4-4-4-4--4-4-4-4-----------|
E|----------------------------------------------|

G|----------------------------------------------|
D|----------------------------------------------|
A|-5-5-5-5--5-5-5--5-5-5-5--5-5-5-0-------------|
E|----------------------------------------------|

Parte 2 de 2
G|----------------------------------------------|
D|----------------------------------------------|
A|-2-2-2-2--2-2-2-2--2-2-2-2--2-2-2-0-----------|
E|----------------------------------------------|

G|----------------------------------------------|
D|----------------------------------------------|
A|-7-7-7-7--7-7-7-7--7-7-7-7--7-7-7-7-----------|
E|----------------------------------------------|


[Refrão 2]

I saw you saying that you say that you saw...

Parte 1 de 3 
G|----------------------------------------------|
D|----------------------------------------------|
A|----------------------------------------------|
E|-5-5-5-5--5-5-7-5--2-2-2-0-2-2-2-7------------|

G|----------------------------------------------|
D|----------------------------------------------|
A|---------------------------------0------------|
E|-5-5-5-5--5-5-7-5--2-2-2-0-2-2-2--------------|

Parte 2 de 3 ( 2x )
G|----------------------------------------------|
D|----------------------------------------------|
A|-2-2-2-2--2-2-2-0--5-5-5-5--5-5-5-0-----------|
E|----------------------------------------------|

Parte 3 de 3
G|----------------------------------------------|
D|----------------------------------------------|
A|-2-2-2-2--2-2-2-0--5--------------------------|
E|----------------------------------------------|


Solo de guitarra 

Parte 1 de 2
G|----------------------------------------------|
D|----------------------------------------------|
A|----------------------------------------------|
E|-2-2-2-2--2-2-2-0--5-5-5-5--5-5-5-0-----------|

G|----------------------------------------------|
D|----------------------------------------------|
A|----------------------------------------------|
E|-2-2-2-2--2-2-2-0--5-5-5-5--5-5-5-0-----------|

Parte 2 de 2
G|----------------------------------------------|
D|----------------------------------------------|
A|----------------0-2-2-2-2--2-2-2-0--5-5-5-5---|
E|-2-2-2-2--2-2-2-------------------------------|

G|----------------------------------------------|
D|----------------------------------------------|
A|-5-5-5-5--------------------------------------|
E|---------0-0-0-0--0-0-0-0--0-0-0-0--0-0-0-0---|


[terceira parte]

The hula hula song make me feel so strong ...

Parte 1 de 4 ( 3x )
G|----------------------------------------------|
D|----------------------------------------------|
A|----------------------------------------------|
E|-5-5-5-5--5-5-7-5--2-2-2-0-2-2-2-7------------|

Parte 2 de 4
G|----------------------------------------------|
D|----------------------------------------------|
A|---------------------------------0------------|
E|-5-5-5-5--5-5-7-5--2-2-2-0-2-2-2--------------|

Parte 3 de 4 ( 2x )
G|----------------------------------------------|
D|----------------------------------------------|
A|-2-2-2-2--2-2-2-0--5-5-5-5--5-5-5-0-----------|
E|----------------------------------------------|

Parte 4 de 4
G|----------------------------------------------|
D|----------------------------------------------|
A|-2-2-2-2--2-2-2-0--5--------------------------|
E|----------------------------------------------|


[Introdução 3 - Final]

Parte 1
G|----------------------------------------------|
D|----------------------------------------------|
A|-----------------------------------5-5-7-7--0-|
E|-5-5-5-5--5-5-7-5--2-2-2-0-2-2-2-2------------|
exibições 14.332
Composição: Rodolfo / Gabriel Thomaz Colaboração e revisão:
  • Reginaldo Costa
  • Vinicius Francesch

0 comentários

mostrar mais comentários

Conseguiu tocar?

14 tocaram 0 ainda não

Grave um vídeo tocando I Saw You Saying (That You Say That You Saw) e mande pra gente!

00:00 / 00:00
outros vídeos desta música
repetir qualidade Automático
Outros vídeos desta música
00:00 / 00:00
Automático
Capítulos
  • Tocando a música
  • Apresentação / Equipamentos
  • TAB - Introdução
  • TAB - Primeira Parte
  • TAB - Refrão
  • TAB - Segunda Parte
  • TAB - Refrão 2
  • TAB - Solo de Guitarra
  • TAB - Terceira Parte
  • TAB - Introdução 3
  • Encerramento
OK