Cifra Club

Aprenda

Jesus Meu Guia É

Raiz Coral

Cifra: Versão 3 (violão e guitarra)
tom: C
Jesus meu guia é

1 Fase

E|-0-5-0-3-1-1---------3-1-0-1-0---1---0----------------0-1-2--4-5|
B|-------------0-1-3-3--3---1----3---1---1-3-0--0-1--1-3----------|
G|----------------------------------------------------------------|
D|----------------------------------------------------------------|
A|----------------------------------------------------------------|
E|----------------------------------------------------------------|

2 Fase

E|-5-3-1-5-3-----3-1-0-3-1----0---0-1-0-0-1-0--0-1-2--4-5-|
B|------------------------------3-------------------------|
G|--------------------------------------------------------|
D|--------------------------------------------------------|
A|--------------------------------------------------------|
E|--------------------------------------------------------|

Depois repete o final da primeira
Compositor não encontrado.
Colaboração e revisão:
  • marcos maciel
17.019 exibições
  • Simplificar cifra
    • ½ Tom
    • A
    • Bb
    • B
    • C
    • Db
    • D
    • Eb
    • E
    • F
    • F#
    • G
    • Ab
  • Adicionar à lista

    0 comentários

    Ver todos os comentários
    00:00 / 00:00
    Outros vídeos desta música
    Repetir Qualidade Automático
    Outros vídeos desta música
    00:00 / 00:00
    Automático

    Cifra Club Pro

    Aproveite o Cifra Club com benefícios exclusivos e sem anúncios
    Cifra Club Pro
    Aproveite o Cifra Club com benefícios exclusivos e sem anúncios
    OK