Du Hast

Rammstein

Composição de: Oliver Riedel / Paul Landers / Rammstein / Richard Z. Kruspe
tom: G
Introdução:

(Riff 1)

   A5 G5 E5
E|------------------------------------------|
B|------------------------------------------|
G|------------------------------------------|
D|------------------------------------------|
A|-7\5--2--2--2-2-2--2-2--------------------|
E|-5\3--0--0--0-0-0--0-0--------------------|

   A5 G5   E5
E|------------------------------------------|
B|------------------------------------------|
G|------------------------------------------|
D|------------------------------------------|
A|-7--5----2--2--2-2-2--2-2-2-2-------------|
E|-5--3p0--0--0--0-0-0--0-0-0-0-------------|

   A5 G5 E5
E|------------------------------------------|
B|------------------------------------------|
G|------------------------------------------|
D|------------------------------------------|
A|-7\5--2--2--2-2-2--2-2--------------------|
E|-5\3--0--0--0-0-0--0-0--------------------|

   A5 G5   E5
E|------------------------------------------|
B|------------------------------------------|
G|------------------------------------------|
D|------------------------------------------|
A|-7--5----2--2--2-2-2--2-2-2-2-------------|
E|-5--3p0--0--0--0-0-0--0-0-0-0-------------|

   A5 G5 E5
E|------------------------------------------|
B|------------------------------------------|
G|------------------------------------------|
D|------------------------------------------|
A|-7\5--2--2--2-2-2--2-2--------------------|
E|-5\3--0--0--0-0-0--0-0--------------------|

   A5 G5   E5
E|------------------------------------------|
B|------------------------------------------|
G|------------------------------------------|
D|------------------------------------------|
A|-7--5----2--2--2-2-2--2-2-2-2-------------|
E|-5--3p0--0--0--0-0-0--0-0-0-0-------------|

   G5 A5
E|------------------------------------------|
B|------------------------------------------|
G|------------------------------------------|
D|------------------------------------------|
A|-5\7--7--7--7-7-7--7-7-7-7----------------|
E|-3\5--5--5--5-5-5--5-5-5-5----------------|


Primeira Parte:

Du
Du hast
Du hast mich
Du
Du hast
Du hast mich
Du
Du hast
Du hast mich
Du
Du hast
Du hast mich

(Riff 1)


Segunda Parte:

Du
Du hast
Du hast mich
Du hast mich


Du hasst mich gefragt
Du hasst mich gefragt
Du hasst mich gefragt
Und ich habe nichts gesagt


Terceira Parte:

(Riff 2)

   A5 G5 E5
E|------------------------------------------|
B|------------------------------------------|
G|------------------------------------------|
D|------------------------------------------|
A|-7\5--2--2--2-2-2--2-2--------------------|
E|-5\3--0--0--0-0-0--0-0--------------------|

   A5 G5   E5
E|------------------------------------------|
B|------------------------------------------|
G|------------------------------------------|
D|------------------------------------------|
A|-7--5----2--2--2-2-2--2-2-2-2-------------|
E|-5--3p0--0--0--0-0-0--0-0-0-0-------------|

   G5 A5
E|------------------------------------------|
B|------------------------------------------|
G|------------------------------------------|
D|------------------------------------------|
A|-5\7--7--7--7-7-7--7-7-7-7----------------|
E|-3\5--5--5--5-5-5--5-5-5-5----------------|

   G5 A5
E|------------------------------------------|
B|------------------------------------------|
G|------------------------------------------|
D|------------------------------------------|
A|-5\7--7--7--7-7-7--7-7-7-7----------------|
E|-3\5--5--5--5-5-5--5-5-5-5----------------|

   A5 C5
E|------------------------------------------|
B|------------------------------------------|
G|------------------------------------------|
D|------------------------------------------|
A|-7/10--10--10--10-10-10--10-10------------|
E|-5/-8---8---8---8--8--8---8--8------------|

   D5  B5
E|------------------------------------------|
B|------------------------------------------|
G|------------------------------------------|
D|------------------------------------------|
A|-12--9--9--9--9--9-9-9--9-9-9-9-----------|
E|-10--7--7--7--7--7-7-7--7-7-7-7-----------|

   A5 G5 E5
E|------------------------------------------|
B|------------------------------------------|
G|------------------------------------------|
D|------------------------------------------|
A|-7\5--2--2--2-2-2--2-2--------------------|
E|-5\3--0--0--0-0-0--0-0--------------------|

   A5 G5   E5
E|------------------------------------------|
B|------------------------------------------|
G|------------------------------------------|
D|------------------------------------------|
A|-7--5----2--2--2-2-2--2-2-2-2-------------|
E|-5--3p0--0--0--0-0-0--0-0-0-0-------------|


Willst du bis der tod euch scheidet
Treu ihr sein für alle tage?
(Ja) nein
(Ja) nein

Willst du bis der tod euch scheidet
Treu ihr sein für alle tage?
(Ja) nein
(Ja) nein


Quarta Parte:

Du
Du hast
Du hast mich
Du
Du hast
Du hast mich

(Riff 2)

Du
Du hast
Du hast mich
Du hast mich

Du hasst mich gefragt
Du hasst mich gefragt
Du hasst mich gefragt
Und ich habe nichts gesagt


Quinta Parte:

(Riff 2)

Willst du bis der tod euch scheidet
Treu ihr sein für alle tage?
(Ja) nein
(Ja) nein

Willst du bis zum tod der scheide
Sie lieben auch in schlechten tagen?
(Ja) nein
(Ja) nein

Willst du bis der tod euch scheidet
Treu ihr sein?
(Ja) nein
(Ja) nein
Página 1 / 1

Letras e título
Acordes e artista

resetar configurações
OK