Du Hast

Rammstein

Composição de: Oliver Riedel / Paul Landers / Rammstein / Richard Z. Kruspe
tom: A
early 1998

S1: Very good song and easy to play. I played this song at a concert at
my school 
plp loved it.
, Standard tuning

pm = palm mutted

|--------------------------------------------
|--------------------------------------------
|--------------------------------------------
|--------------------------------------------
|-5-2-2--2-2-2--2-2------5-2-2--2-2-2--2-2---
|-3-0-0--0-0-0--0-0------3-0-0--0-0-0--0-0---
     pm............         pm............

|--------------------------------------------
|--------------------------------------------
|--------------------------------------------
|--------------------------------------------
|-5-7-7--7-7-7--7-7------5-7-7--7-7-7--7-7---
|-3-5-5--5-5-5--5-5------3-5-5--5-5-5--5-5---
     pm............         pm............

|----------------------------------------------------------
|----------------------------------------------------------
|----------------------------------------------------------
|----------------------------------------------------------
|-7-10-10--10-10-10--10-10------7-10-10--10-10-10--10-10---
|-5--8--8---8--8--8---8--8------5--8--8---8--8--8---8--8---
       pm.................           pm..................

|----------------------------------------------
|----------------------------------------------
|----------------------------------------------
|----------------------------------------------
|-10-9-9--9-9-9--9-9------10-9-9--9-9-9--9-9---
|--8-7-7--7-7-7--7-7-------8-7-7--7-7-7--7-7---
      pm............          pm............

|--------------------------------------------
|--------------------------------------------
|--------------------------------------------
|--------------------------------------------
|-5-2-2--2-2-2--2-2------5-2-2--2-2-2--2-2---
|-3-0-0--0-0-0--0-0------3-0-0--0-0-0--0-0---
     pm............         pm.............


Easy song! I think anyone can learn this song. This is the only part
they 
play on guitar. It repeats like many times. The rest of the song is
keyboard, drum
drums, bass and other shit.
Enjoy
Página 1 / 1

Letras e título
Acordes e artista

resetar configurações
OK