Cifra Club

Aprenda

Du Hast

Rammstein

Tab de baixo: Versão 3
Já pensou em usar uma coleção de roupas do Cifra Club? Responda as perguntas abaixo e nos ajude nessa missão! →
Tabber: Satan Man
Tabbers Email: *
Tuning: Standard [EADG]

Intro
|----------------------------------------------------|
|----------------------------------------------------|
|----------------------------------------------------| x3
|-5\3--0---0--0-0-0--0-0-5\3--0---0--0-0-0--0-0-0-0--|
       .   .  . . .  . .      .   .  . . .  . . . .

|-----------------------------|
|-----------------------------|
|-----------------------------|
|-3\5--5---5--5-5-5--5-5-5-5--|
       .   .  . . .  . . . .

Verse 
|-----------------------------------------------------|
|-----------------------------------------------------|
|-----------------------------------------------------| x8
|-5-3--0---0--0-0-0--0-0-5-3--0---0--0-0-0-5-0-0-0-0--| 
       .   .  . . .  . .      .   .  . . .   . . . .

Pre-Verse
|----------------------------------------------------|
|----------------------------------------------------|
|----------------------------------------------------| x3
|-5\3--0---0--0-0-0--0-0-5\3--0---0--0-0-0--0-0-0-0--|
       .   .  . . .  . .      .   .  . . .  . . . .

|-----------------------------|
|-----------------------------|
|-----------------------------|
|-3\5--5---5--5-5-5--5-5-5-5--|
       .   .  . . .  . . . .

Verse
|-----------------------------------------------------|
|-----------------------------------------------------|
|-----------------------------------------------------| x4
|-5-3--0---0--0-0-0--0-0-5-3--0---0--0-0-0-5-0-0-0-0--| 
       .   .  . . .  . .      .   .  . . .   . . . .

Chorus x3
|----------------------------------------------------|
|----------------------------------------------------|
|----------------------------------------------------|
|-5\3--0---0--0-0-0--0-0-5\3--0---0--0-0-0--0-0-0-0--|
       .   .  . . .  . .      .   .  . . .  . . . .

|-----------------------------------------------------|
|-----------------------------------------------------|
|-----------------------------------------------------|
|-3\5--5---5--5-5-5--5-5-3\5--5---5--5-5-5--5-5-5-5---|
       .   .  . . .  . .      .   .  . . .  . . . .

|-------------------------------------------------------------|
|-------------------------------------------------------------|
|-------------------------------------------------------------|
|-5\8----8----8---8--8--8---8--8--8\7--7---7--7-7-7--7-7-7-7--|
         .    .   .  .  .   .  .  .    .   .  . . .  . . . .

|----------------------------------------------------|
|----------------------------------------------------|
|----------------------------------------------------|
|-5\3--0---0--0-0-0--0-0-5\3--0---0--0-0-0--0-0-0-0--|
       .   .  . . .  . .       .   .  . . .  . . . . 

When singing stops come in again

Chorus
|----------------------------------------------------|
|----------------------------------------------------|
|----------------------------------------------------|
|-5\3--0---0--0-0-0--0-0-5\3--0---0--0-0-0--0-0-0-0--|
       .   .  . . .  . .      .   .  . . .  . . . .

|-----------------------------------------------------|
|-----------------------------------------------------|
|-----------------------------------------------------|
|-3\5--5---5--5-5-5--5-5-3\5--5---5--5-5-5--5-5-5-5---|
       .   .  . . .  . .      .   .  . . .  . . . .

|-------------------------------------------------------------|
|-------------------------------------------------------------|
|-------------------------------------------------------------|
|-5\8----8----8---8--8--8---8--8--8\7--7---7--7-7-7--7-7-7-7--|
         .    .   .  .  .   .  .  .    .   .  . . .  . . . .

|----------------------------------------------------|
|----------------------------------------------------|
|----------------------------------------------------|
|-5\3--0---0--0-0-0--0-0-5\3--0---0--0-0-0--0-0-0-0--|
       .   .  . . .  . .       .   .  . . .  . . . . 

pause again

Chorus x3
|----------------------------------------------------|
|----------------------------------------------------|
|----------------------------------------------------|
|-5\3--0---0--0-0-0--0-0-5\3--0---0--0-0-0--0-0-0-0--|
       .   .  . . .  . .      .   .  . . .  . . . .

|-----------------------------------------------------|
|-----------------------------------------------------|
|-----------------------------------------------------|
|-3\5--5---5--5-5-5--5-5-3\5--5---5--5-5-5--5-5-5-5---|
       .   .  . . .  . .      .   .  . . .  . . . .

|-------------------------------------------------------------|
|-------------------------------------------------------------|
|-------------------------------------------------------------|
|-5\8----8----8---8--8--8---8--8--8\7--7---7--7-7-7--7-7-7-7--|
         .    .   .  .  .   .  .  .    .   .  . . .  . . . .

|----------------------------------------------------|
|----------------------------------------------------|
|----------------------------------------------------| 
|-5\3--0---0--0-0-0--0-0-5\3--0---0--0-0-0--0-0-0-0--|
       .   .  . . .  . .       .   .  . . .  . . . . 
Composição de Oliver Riedel / Paul Landers / Rammstein / Richard Z. Kruspe
310 exibições

0 comentários

Ver todos os comentários

Conseguiu tocar?

0 Tocaram 0 Ainda não

Grave um vídeo tocando Du Hast e nos envie!

00:00 / 00:00
Outros vídeos desta música
Repetir Qualidade Automático
Outros vídeos desta música
00:00 / 00:00
Automático

Cifra Club Pro

Aproveite o Cifra Club com benefícios exclusivos e sem anúncios
Cifra Club Pro
Aproveite o Cifra Club com benefícios exclusivos e sem anúncios
OK