Cifra Club

Aprenda

Du Hast

Rammstein

Tab de baixo: Teclado-no-baixo
Já pensou em usar uma coleção de roupas do Cifra Club? Responda as perguntas abaixo e nos ajude nessa missão! →
Parte 1:

G|-------------------------------------------|
D|-14-12--------------------12---------------|
A|-------12-15-14----12--15----14------------|
E|----------------12-------------------------|

Parte 2: Ritmo diferente

G|-------------------------------------------|
D|-14-12--------------------12---------------|
A|-------12-15-14----12--15----14------------|
E|----------------12-------------------------|
Composição de Oliver Riedel / Paul Landers / Rammstein / Richard Z. Kruspe
Colaboração e revisão:
  • Lucas Fleming
22 exibições

0 comentários

Ver todos os comentários

Conseguiu tocar?

0 Tocaram 0 Ainda não

Grave um vídeo tocando Du Hast e nos envie!

00:00 / 00:00
Outros vídeos desta música
Repetir Qualidade Automático
Outros vídeos desta música
00:00 / 00:00
Automático

Cifra Club Pro

Aproveite o Cifra Club com benefícios exclusivos e sem anúncios
Cifra Club Pro
Aproveite o Cifra Club com benefícios exclusivos e sem anúncios
OK