Ich Will

Rammstein

Composição de: Oliver Riedel / Paul Landers / Rammstein / Richard Z. Kruspe
Intro:
|-----------------------------------|
|-----------------------------------|
|---5----5--------5-------5---------|   X2
|-0--0-0------0-0---0-0-0---0-------|


Riff Principal:
|-----------------------------------|
|-----------------------------------|
|---5-----5--------5-------5--------|
|-0---0-0------0-0---0-0-0---0------|
Depois:
|-----------------------------------|
|-----------------------------------|
|---5-----5-------------------------|
|-0---0-0------5-5-5-0-3-3-3-0------|


Verso
|-----------------------------------|
|-----------------------------------|
|---5-----5--------5-------5--------|
|-0---0-0------0-0---0-0-0---0------|


Antes do Refrão
|-----------|
|-----------|
|---5-----5-|
|-0---0-0---|


Refrão
|-----------------------------------|
|-----------------------------------|
|-----------------------------------|
|-0-0-0-0-0-0-0--8-8-8-8-5-5-5-7----|

|-----------------------------------|
|-----------------------------------|
|-----------------------------------|
|-0-0-0-0-0-0-0--8-8-8-8-10-10-10-7-|


Break
|-------------------------------------------------|
|-------------------------------------------------|
|-------------------------------------------------|
|-0--0--0--0--8--8--8--8-7-5--5--5--5--7--7--7--7-|
Página 1 / 1

Letras e título
Acordes e artista

resetar configurações
OK