Los

Rammstein

Composição de: Oliver Riedel / Paul Landers / Rammstein / Richard Z. Kruspe
tom: D
(riff)

(4x)
E |---------------------------------------
B |---------------------------------------
G |---------------------------------------
D |-5---6---8---------------------------
A |-5---6---8---------------------------
E |-3---4---6---------------------------

(3x)
E |-----------------------------------
B |-----------------------------------
G |-----------------------------------
D |-10-------------------------------
A |-10-------------------------------
E |-8---------------------------------

(repete desde o início)

(solo)
(8x)
E |-----------------------------------------
B |-----------------------------------------
G |-----5-3--------------------------------
D |----------5-----------------------------
A |-3----------3------3-----6--3---------
E |-----------------6-----6---------6-----

(volta ao riff)
Página 1 / 1

Letras e título
Acordes e artista

resetar configurações
OK