Mutter

Rammstein

Composição de: Rammstein
Standard Tuning

Verse 1 (start at 00:07) - really slow

G|--------------------------|
D|--2~-----5---4----5-4----*| x6
A|-------------------------*|
E|--------------------------|

Chorus 1 (start at 00:56)

G|-----------4---4-2-4-2------------|
D|--2---4-5---------------4----5-4--| x2
A|----------------------------------|
E|----------------------------------|

Verse 1 (1:13) x 4
Chorus 1 (1:46) x 4

Bridge 1 (start at 2:19) - Notes (2) like this are 16x
			   Notes [2] like this are 8x

G|------------------------------|
D|--(2)---[4]---55445544--------| x2
A|------------------------------|
E|------------------------------|

Vocal with "Mutter" (2:36), there is no bass and
start again at 2:56 with 

Chorus 2

G|-----------6---6-4-6-4------------|
D|--4---6-7---------------6----7-6--| x4
A|----------------------------------|
E|----------------------------------|

Bridge 2 (start at 3:30) - Notes (2) like this are 16x
			   Notes [2] like this are 8x

G|------------------------------|
D|--(4)---[6]---77667766--------| x2
A|------------------------------|
E|------------------------------|

Chorus 2 (3:47) x4

End (4:19) - Let ring the note as much as you can

G|--------------------------|
D|--4~----------------------|
A|--------------------------|
E|--------------------------|



_______________________________________________________
Contribuição: João Marcos de Oliveira Palma(deadpool_de@msn.com)
Página 1 / 1

Letras e título
Acordes e artista

resetar configurações
OK