Seemann

Rammstein

Composição de: Rammstein
Tempo: 70 bpm
                                                                                        
G||------------------|------------------|-------18---------16---------14---------13----|
D||------------------|------------------|----14----14---14----14---14----14---14----14-|
A||------------------|------------------|--0----------0----------0----------0----------|
E||------------------|------------------|----------------------------------------------|


                                                                                         
-------11--------11--------13--------13---|-------14---------13---------11---------9----|
-----9----9----9----9----9----9----9----9-|----11----11---11----11---11----11---11---11-|
--11--------11--------11--------11--------|--9----------9----------9----------9---------|
------------------------------------------|---------------------------------------------|


                                                                                  
------6-------5-------6-------6---|-------18---------16---------14---------13----|
----6---6---6---6---6---6---6---6-|----14----14---14----14---14----14---14----14-|
--4-------4-------4-------4-------|--0----------0----------0----------0----------|
----------------------------------|----------------------------------------------|


                                                                                         
-------11--------11--------13--------13---|-------14---------13---------11---------9----|
-----9----9----9----9----9----9----9----9-|----11----11---11----11---11----11---11---11-|
--11--------11--------11--------11--------|--9----------9----------9----------9---------|
------------------------------------------|---------------------------------------------|


                                                                                  
------6-------5-------6-------6---|-------18---------16---------14---------13----|
----6---6---6---6---6---6---6---6-|----14----14---14----14---14----14---14----14-|
--4-------4-------4-------4-------|--0----------0----------0----------0----------|
----------------------------------|----------------------------------------------|


                                                                                         
-------11--------11--------13--------13---|-------14---------13---------11---------9----|
-----9----9----9----9----9----9----9----9-|----11----11---11----11---11----11---11---11-|
--11--------11--------11--------11--------|--9----------9----------9----------9---------|
------------------------------------------|---------------------------------------------|


                                                                                  
------6-------5-------6-------6---|-------18---------16---------14---------13----|
----6---6---6---6---6---6---6---6-|----14----14---14----14---14----14---14----14-|
--4-------4-------4-------4-------|--0----------0----------0----------0----------|
----------------------------------|----------------------------------------------|


                                                                                         
-------11--------11--------13--------13---|-------14---------13---------11---------9----|
-----9----9----9----9----9----9----9----9-|----11----11---11----11---11----11---11---11-|
--11--------11--------11--------11--------|--9----------9----------9----------9---------|
------------------------------------------|---------------------------------------------|


                                                                                  
------6-------5-------6-------6---|-------18---------16---------14---------13----|
----6---6---6---6---6---6---6---6-|----14----14---14----14---14----14---14----14-|
--4-------4-------4-------4-------|--0----------0----------0----------0----------|
----------------------------------|----------------------------------------------|


                                                                                         
-------11--------11--------13--------13---|-------14---------13---------11---------9----|
-----9----9----9----9----9----9----9----9-|----11----11---11----11---11----11---11---11-|
--11--------11--------11--------11--------|--9----------9----------9----------9---------|
------------------------------------------|---------------------------------------------|


                                                                                  
------6-------5-------6-------6---|-------18---------16---------14---------13----|
----6---6---6---6---6---6---6---6-|----14----14---14----14---14----14---14----14-|
--4-------4-------4-------4-------|--0----------0----------0----------0----------|
----------------------------------|----------------------------------------------|


                                                                                         
-------11--------11--------13--------13---|-------14---------13---------11---------9----|
-----9----9----9----9----9----9----9----9-|----11----11---11----11---11----11---11---11-|
--11--------11--------11--------11--------|--9----------9----------9----------9---------|
------------------------------------------|---------------------------------------------|


                                                                                  
------6-------5-------6-------6---|-------18---------16---------14---------13----|
----6---6---6---6---6---6---6---6-|----14----14---14----14---14----14---14----14-|
--4-------4-------4-------4-------|--0----------0----------0----------0----------|
----------------------------------|----------------------------------------------|


                                                                                         
-------11--------11--------13--------13---|-------14---------13---------11---------9----|
-----9----9----9----9----9----9----9----9-|----11----11---11----11---11----11---11---11-|
--11--------11--------11--------11--------|--9----------9----------9----------9---------|
------------------------------------------|---------------------------------------------|


                                                                                  
------6-------5-------6-------6---|-------18---------16---------14---------13----|
----6---6---6---6---6---6---6---6-|----14----14---14----14---14----14---14----14-|
--4-------4-------4-------4-------|--0----------0----------0----------0----------|
----------------------------------|----------------------------------------------|


                                                                                         
-------11--------11--------13--------13---|-------14---------13---------11---------9----|
-----9----9----9----9----9----9----9----9-|----11----11---11----11---11----11---11---11-|
--11--------11--------11--------11--------|--9----------9----------9----------9---------|
------------------------------------------|---------------------------------------------|


                                                                                  
------6-------5-------6-------6---|-------18---------16---------14---------13----|
----6---6---6---6---6---6---6---6-|----14----14---14----14---14----14---14----14-|
--4-------4-------4-------4-------|--0----------0----------0----------0----------|
----------------------------------|----------------------------------------------|


                                                                                         
-------11--------11--------13--------13---|-------14---------13---------11---------9----|
-----9----9----9----9----9----9----9----9-|----11----11---11----11---11----11---11---11-|
--11--------11--------11--------11--------|--9----------9----------9----------9---------|
------------------------------------------|---------------------------------------------|


                                                                                  
------6-------5-------6-------6---|-------18---------16---------14---------13----|
----6---6---6---6---6---6---6---6-|----14----14---14----14---14----14---14----14-|
--4-------4-------4-------4-------|--0----------0----------0----------0----------|
----------------------------------|----------------------------------------------|


                                                                                         
-------11--------11--------13--------13---|-------14---------13---------11---------9----|
-----9----9----9----9----9----9----9----9-|----11----11---11----11---11----11---11---11-|
--11--------11--------11--------11--------|--9----------9----------9----------9---------|
------------------------------------------|---------------------------------------------|


                                                                                  
------6-------5-------6-------6---|-------18---------16---------14---------13----|
----6---6---6---6---6---6---6---6-|----14----14---14----14---14----14---14----14-|
--4-------4-------4-------4-------|--0----------0----------0----------0----------|
----------------------------------|----------------------------------------------|


                                                                                         
-------11--------11--------13--------13---|-------14---------13---------11---------9----|
-----9----9----9----9----9----9----9----9-|----11----11---11----11---11----11---11---11-|
--11--------11--------11--------11--------|--9----------9----------9----------9---------|
------------------------------------------|---------------------------------------------|


                                                                                  
------6-------5-------6-------6---|-------18---------16---------14---------13----|
----6---6---6---6---6---6---6---6-|----14----14---14----14---14----14---14----14-|
--4-------4-------4-------4-------|--0----------0----------0----------0----------|
----------------------------------|----------------------------------------------|


                                                                                         
-------11--------11--------13--------13---|-------14---------13---------11---------9----|
-----9----9----9----9----9----9----9----9-|----11----11---11----11---11----11---11---11-|
--11--------11--------11--------11--------|--9----------9----------9----------9---------|
------------------------------------------|---------------------------------------------|


                                                                           
------6-------5-------6-------6---|-------------------|-------------------|
----6---6---6---6---6---6---6---6-|-------------------|-------------------|
--4-------4-------4-------4-------|-------------------|-------------------|
----------------------------------|--0----------------|--0----------------|


                                                                                          
-------18---------16---------14---------13----|-------11--------11--------13--------13---|
----14----14---14----14---14----14---14----14-|-----9----9----9----9----9----9----9----9-|
--0----------0----------0----------0----------|--11--------11--------11--------11--------|
----------------------------------------------|------------------------------------------|


                                                                                 
-------14---------13---------11---------9----|------6-------5-------6-------6---|
----11----11---11----11---11----11---11---11-|----6---6---6---6---6---6---6---6-|
--9----------9----------9----------9---------|--4-------4-------4-------4-------|
---------------------------------------------|----------------------------------|


                                                                                          
-------18---------16---------14---------13----|-------11--------11--------13--------13---|
----14----14---14----14---14----14---14----14-|-----9----9----9----9----9----9----9----9-|
--0----------0----------0----------0----------|--11--------11--------11--------11--------|
----------------------------------------------|------------------------------------------|


                                                                                 
-------14---------13---------11---------9----|------6-------5-------6-------6---|
----11----11---11----11---11----11---11---11-|----6---6---6---6---6---6---6---6-|
--9----------9----------9----------9---------|--4-------4-------4-------4-------|
---------------------------------------------|----------------------------------|


                                                                                          
-------18---------16---------14---------13----|-------11--------11--------13--------13---|
----14----14---14----14---14----14---14----14-|-----9----9----9----9----9----9----9----9-|
--0----------0----------0----------0----------|--11--------11--------11--------11--------|
----------------------------------------------|------------------------------------------|


                                                                                 
-------14---------13---------11---------9----|------6-------5-------6-------6---|
----11----11---11----11---11----11---11---11-|----6---6---6---6---6---6---6---6-|
--9----------9----------9----------9---------|--4-------4-------4-------4-------|
---------------------------------------------|----------------------------------|


                                                                                          
-------18---------16---------14---------13----|-------11--------11--------13--------13---|
----14----14---14----14---14----14---14----14-|-----9----9----9----9----9----9----9----9-|
--0----------0----------0----------0----------|--11--------11--------11--------11--------|
----------------------------------------------|------------------------------------------|


                                                                                 
-------14---------13---------11---------9----|------6-------5-------6-------6---|
----11----11---11----11---11----11---11---11-|----6---6---6---6---6---6---6---6-|
--9----------9----------9----------9---------|--4-------4-------4-------4-------|
---------------------------------------------|----------------------------------|


                                                                                          
-------18---------16---------14---------13----|-------11--------11--------13--------13---|
----14----14---14----14---14----14---14----14-|-----9----9----9----9----9----9----9----9-|
--0----------0----------0----------0----------|--11--------11--------11--------11--------|
----------------------------------------------|------------------------------------------|


                                                                                 
-------14---------13---------11---------9----|------6-------5-------6-------6---|
----11----11---11----11---11----11---11---11-|----6---6---6---6---6---6---6---6-|
--9----------9----------9----------9---------|--4-------4-------4-------4-------|
---------------------------------------------|----------------------------------|


                                                                                          
-------18---------16---------14---------13----|-------11--------11--------13--------13---|
----14----14---14----14---14----14---14----14-|-----9----9----9----9----9----9----9----9-|
--0----------0----------0----------0----------|--11--------11--------11--------11--------|
----------------------------------------------|------------------------------------------|


                                                                                 
-------14---------13---------11---------9----|------6-------5-------6-------6---|
----11----11---11----11---11----11---11---11-|----6---6---6---6---6---6---6---6-|
--9----------9----------9----------9---------|--4-------4-------4-------4-------|
---------------------------------------------|----------------------------------|


                                                                                       
-------------------|-------------------|-------18---------16---------14---------13----|
-------------------|-------------------|----14----14---14----14---14----14---14----14-|
-------------------|-------------------|--0----------0----------0----------0----------|
--0----------------|--0----------------|----------------------------------------------|


                                           
-------11--------11--------13--------13---|
-----9----9----9----9----9----9----9----9-|
--11--------11--------11--------11--------|
------------------------------------------|


                                                                             
-------14---------13---------11---------9h11h9-|------6-------6---6--------||
----11----11---11----11---11----11---11--------|----6---6---6---6-6--------||
--9----------9----------9----------9-----------|--4-------4-------4--------||
-----------------------------------------------|---------------------------||
Página 1 / 1

Letras e título
Acordes e artista

resetar configurações
OK