Cifra Club

Wollt Ihr Das Bett in Flammen Sehen?

Rammstein

Cifra: Principal (violão e guitarra)
tom: G
A musica fica quase toda assim...
Riff
      C5   D5         D#5        D5
E|-------------------------------------------------- |
A|----3------5-------------6------------5--------------- |
D|----5------7-------------8------------7--------------- |   
G|-------------------------------------------------- | 
B|-------------------------------------------------- |
e|-------------------------------------------------- |

Aqui dah uma mudada no ritmo e fica soh em D5 e D#5... +/- assim...
       D5        D#5         D5
E|-------------------------------------------------- |
A|------5------------6------------5-------------- |
D|------7------------8------------7--------------- |   
G|-------------------------------------------------- | 
B|-------------------------------------------------- |
e|-------------------------------------------------- |
Composição de Rammstein
Colaboração e revisão:
  • Miguel Polli
5.045 exibições
    • ½ Tom
    • A
    • Bb
    • B
    • C
    • Db
    • D
    • Eb
    • E
    • F
    • F#
    • G
    • Ab
  • Adicionar à lista

    0 comentários

    Ver todos os comentários

    Conseguiu tocar?

    5 Tocaram 1 Ainda não

    Grave um vídeo tocando Wollt Ihr Das Bett in Flammen Sehen? e nos envie!

    00:00 / 00:00
    Outros vídeos desta música
    Repetir Qualidade Automático
    Outros vídeos desta música
    00:00 / 00:00
    Automático

    Cifra Club Pro

    Aproveite o Cifra Club com benefícios exclusivos e sem anúncios
    Cifra Club Pro
    Aproveite o Cifra Club com benefícios exclusivos e sem anúncios
    OK