Zwitter

Rammstein

Composição de: Rammstein
tom: Bb
Drop D Tuning

Main Riff
Note: h = hammer on
      \ = slide down

Intro 

E-----------------------------------------------------------------
B-----------------------------------------------------------------
D-----------------------------------------------------------------
D-----------------------------------------------------------------
A-----------------------------------------------------------------
D-0-0-0-0-0-0-5\3---0-0-0-0-0h1--0--------------------------------
  pm.........       pm.....


Part after intro

E-----------------------------------------------------------------
B-----------------------------------------------------------------
D-----------------------------------------------------------------
D-0-0-0-0-0-0-5\3---0-0-0-0-0h1--0--------------------------------
A-0-0-0-0-0-0-5\3---0-0-0-0-0h1--0--------------------------------
D-0-0-0-0-0-0-5\3---0-0-0-0-0h1--0--------------------------------
  pm.........       pm.....


Chorus

E-----------------------------------------------------------------
B-----------------------------------------------------------------
G-8-8-8-8-8-8-8-8-5-5-5-5-5-5-5-5-3-3-3-3-3-3-3-3-3-3-3-3---------
D-8-8-8-8-8-8-8-8-5-5-5-5-5-5-5-5-3-3-3-3-3-3-3-3-3-3-3-3-----1-3-
A-6-6-6-6-6-6-6-6-3-3-3-3-3-3-3-3-1-1-1-1-1-1-1-1-1-1-1-1-1-3-----
D-----------------------------------------------------------------

E-----------------------------------------------------------------
B-----------------------------------------------------------------
G-8-8-8-8-8-8-8-8-5-5-5-5-5-5-5-5---------------------------------
D-8-8-8-8-8-8-8-8-5-5-5-5-5-5-5-5-5-5-5-5-5-5-5-5-5-5-5-5-5-5-5-5-
A-6-6-6-6-6-6-6-6-3-3-3-3-3-3-3-3-5-5-5-5-5-5-5-5-5-5-5-5-5-5-5-5-
D---------------------------------5-5-5-5-5-5-5-5-5-5-5-5-5-5-5-5-
Página 1 / 1

Letras e título
Acordes e artista

resetar configurações
OK