Cifra Club

Aprenda

Baby I Love You

Ramones

Tab de baixo: Principal
Intro e versos
G|----------------------------|
D|----------------------------|
A|--------------4--4--6-4-3-1-|
E|--4--4--4--4----------------|

Pré-refrão
G|------------------------------------------------|
D|------------------------------------------------| ____
A|-------------------------4--4--4--4--4--4--4--4-|     |
E|-4--4--4--4--4--4--4--4-------------------------|     |
                                                        V
Pré-refrão (continuação)
G|-------------------------------------------------------------------------|
D|-------------------------------------------------------------------------|
A|-----------------------1--1--1--1--1--1--1--1--1--1--1--1--1--1--1--1--1-|
E|-4--4--4--4--4--4--4->1--------------------------------------------------|

Refrão:
G|----------------------------|
D|----------------------------|
A|--------------4--4--6-4-3-1-|
E|--4--4--4--4----------------|
Composição de Ellie Greenwich / Jeff Barry / Phil Spector
Colaboração e revisão:
  • Aerson Moreira
1.780 exibições

0 comentários

Mostrar mais comentários

Conseguiu tocar?

3 Tocaram 0 Ainda não

Grave um vídeo tocando Baby I Love You e mande pra gente!

00:00 / 00:00
outros vídeos desta música
repetir qualidade Automático
Outros vídeos desta música
00:00 / 00:00
Automático
OK