Cifra Club

Aprenda

Blitzkrieg Bop

Ramones

Tab de baixo: Principal
Já pensou em usar uma coleção de roupas do Cifra Club? Responda as perguntas abaixo e nos ajude nessa missão! →
Intro:

G|---------------------------------------------------------------------------|
D|---------------------------------------------------------------------------|
A|-----------5-7--------------5-7--------------5-7----------5-5--------------| 2x
E|-55555555---------55555555---------55555555-----------5-5-----5------------|

  Hey ho, let’s go, hey ho let’s go, Hey ho,let’s go, hey ho  let’s go,
G|---------------------------------------------------------------------------|
D|---------------------------------------------------------------------------|
A|---------------------------------------------------------------------------|
E|-555555555555555555555555555555555555555555555555555555555555555555--------|

Versos
G|---------------------------------------------------------------------------|
D|---------------------------------------------------------------------------|
A|-----------5-7--------------5-7--------------5-7----------5-5--------------| 2x
E|-55555555---------55555555---------55555555-----------5-5-----5------------|

Refrão:

  Hey ho,  let’s go  shoot’em in the back now...
G|---------------------------------------------------------------------------|
D|---------------------------------------------------------------------------|
A|55555555-55555555---------------------55555555-55555555-----------55-7-----|
E|-------------------55555555-55555555---------------------77777777----------|

Versos
G|---------------------------------------------------------------------------|
D|---------------------------------------------------------------------------|
A|-----------5-7--------------5-7--------------5-7----------5-5--------------| 2x
E|-55555555---------55555555---------55555555-----------5-5-----5------------|

Refrão:

  Hey ho,  let’s go  shoot’em in the back now...
G|---------------------------------------------------------------------------|
D|---------------------------------------------------------------------------|
A|55555555-55555555---------------------55555555-55555555-----------55-7-----|
E|-------------------55555555-55555555---------------------77777777----------|

Versos:

G|---------------------------------------------------------------------------|
D|---------------------------------------------------------------------------|
A|-----------5-7--------------5-7--------------5-7----------5-5--------------| 2x
E|-55555555---------55555555---------55555555-----------5-5-----5------------|

Conclusão:
  
 Hey ho, let’s go, hey ho let’s go, Hey ho,let’s go, hey ho  let’s go,
G|---------------------------------------------------------------------------|
D|---------------------------------------------------------------------------|
A|---------------------------------------------------------------------------|
E|5555555555555555-5555555555555555-5555555555555555-5555555555555555--------|
Composição de Ramones
Colaboração e revisão:
52.600 exibições

0 comentários

Ver todos os comentários

Conseguiu tocar?

37 Tocaram 1 Ainda não

Grave um vídeo tocando Blitzkrieg Bop e nos envie!

00:00 / 00:00
Outros vídeos desta música
Repetir Qualidade Automático
Outros vídeos desta música
00:00 / 00:00
Automático

Cifra Club Pro

Aproveite o Cifra Club com benefícios exclusivos e sem anúncios
Cifra Club Pro
Aproveite o Cifra Club com benefícios exclusivos e sem anúncios
OK