Cifra Club

Blitzkrieg Bop

Ramones

Cifra: Principal (violão e guitarra)
Tom: A
1|---------------------------------------------------------|
2|---------------------------------------------------------|
3|-------------7--7/9--9-9---------------------------------|x3
4|--7--7-7-7-7-7--7/9--9-9---------------------------------|
5|--7--7-7-7-7-5--5/7--7-7---------------------------------|
6|--5--5-5-5-5---------------------------------------------|

1|---------------------------------------------------------|
2|---------------------------------------------------------|
3|----------7-7--------------------------------------------|
4|--7-7-7-7-7-7-7-7-7-7------------------------------------|
5|--7-7-7-7-5-5-7-7-7-7------------------------------------|
6|--5-5-5-5-----5-5-5-5------------------------------------|

1|---------------------------------------------------------|
2|---------------------------------------------------------|
3|-------------7--7/9--9-9---------------------------------|x3
4|--7--7-7-7-7-7--7/9--9-9---------------------------------|
5|--7--7-7-7-7-5--5/7--7-7---------------------------------|
6|--5--5-5-5-5---------------------------------------------|

1|---------------------------------------------------------|
2|---------------------------------------------------------|
3|----------7-7--------------------------------------------|
4|--7-7-7-7-7-7-7-7-7-7------------------------------------|
5|--7-7-7-7-5-5-7-7-7-7------------------------------------|
6|--5-5-5-5-----5-5-5-5------------------------------------|

  Hey ho, let's go
  Hey ho, let's go
1|---------------------------------------------------------|
2|---------------------------------------------------------|
3|---------------------------------------------------------|
4|--7-7-7-7-7-7-7-7-7-7-7-7-7------------------------------|
5|--7-7-7-7-7-7-7-7-7-7-7-7-7------------------------------|
6|--5-5-5-5-5-5-5-5-5-5-5-5-5------------------------------|

  Hey ho, let's go
  Hey ho, let's go

1|---------------------------------------------------------|
2|---------------------------------------------------------|
3|-------------7--7/9--9-9---------------------------------|x3
4|--7--7-7-7-7-7--7/9--9-9---------------------------------|
5|--7--7-7-7-7-5--5/7--7-7---------------------------------|
6|--5--5-5-5-5---------------------------------------------|

  They're forming in a straight line
  They're going through a tight wind
  The kids are losing their minds

1|---------------------------------------------------------|
2|---------------------------------------------------------|
3|----------7-7--------------------------------------------|
4|--7-7-7-7-7-7-7-7-7-7------------------------------------|
5|--7-7-7-7-5-5-7-7-7-7------------------------------------|
6|--5-5-5-5-----5-5-5-5------------------------------------|

  The Blitzkrieg Bop

1|---------------------------------------------------------|
2|---------------------------------------------------------|
3|-------------7--7/9--9-9---------------------------------|x3
4|--7--7-7-7-7-7--7/9--9-9---------------------------------|
5|--7--7-7-7-7-5--5/7--7-7---------------------------------|
6|--5--5-5-5-5---------------------------------------------|

  They're piling in the back seat
  They're generating steam heat
  Pulsating to the back beat

1|---------------------------------------------------------|
2|---------------------------------------------------------|
3|----------7-7--------------------------------------------|
4|--7-7-7-7-7-7-7-7-7-7------------------------------------|
5|--7-7-7-7-5-5-7-7-7-7------------------------------------|
6|--5-5-5-5-----5-5-5-5------------------------------------|

  The Blitzkrieg Bop

1|---------------------------------------------------------|
2|---------------------------------------------------------|
3|------------------------------------------------7-7------|
4|--9-9-9-9-9-9-9-9-9-9-9-9-7-7-7-7-7-7-7-7-7-7-7-7-7-7-7--|
5|--9-9-9-9-9-9-9-9-9-9-9-9-7-7-7-7-7-7-7-7-7-7-7-5-5-7-7--|
6|--7-7-7-7-7-7-7-7-7-7-7-7-5-5-5-5-5-5-5-5-5-5-5-----5-5--|

  Hey ho, let's go
  Shoot'em in the back now

1|--------------------------------------------------------------------------|
2|--------------------------------------------------------------------------|
3|------------------------------------------------------------7-7--7/9--9-9-|
4|--9-9-9-9-9-9-9-9-9-9-9-9-7-7-7-7-7-7-7-7-7-7-7-9-9-9-9-9-9-7-7--7/9--9-9-|
5|--9-9-9-9-9-9-9-9-9-9-9-9-7-7-7-7-7-7-7-7-7-7-7-9-9-9-9-9-9-5-5--5/7--7-7-|
6|--7-7-7-7-7-7-7-7-7-7-7-7-5-5-5-5-5-5-5-5-5-5-5-7-7-7-7-7-7---------------|

  What they want, I don't know
  They're all reved up and ready to go

1|---------------------------------------------------------|
2|---------------------------------------------------------|
3|-------------7--7/9--9-9---------------------------------|x3
4|--7--7-7-7-7-7--7/9--9-9---------------------------------|
5|--7--7-7-7-7-5--5/7--7-7---------------------------------|
6|--5--5-5-5-5---------------------------------------------|

  They're forming in a straight line
  They're going through a tight wind
  The kids are losing their minds

1|---------------------------------------------------------|
2|---------------------------------------------------------|
3|----------7-7--------------------------------------------|
4|--7-7-7-7-7-7-7-7-7-7------------------------------------|
5|--7-7-7-7-5-5-7-7-7-7------------------------------------|
6|--5-5-5-5-----5-5-5-5------------------------------------|

  The Blitzkrieg Bop

1|---------------------------------------------------------|
2|---------------------------------------------------------|
3|-------------7--7/9--9-9---------------------------------|x3
4|--7--7-7-7-7-7--7/9--9-9---------------------------------|
5|--7--7-7-7-7-5--5/7--7-7---------------------------------|
6|--5--5-5-5-5---------------------------------------------|

  They're piling in the back seat
  They're generating steam heat
  Pulsating to the back beat

1|---------------------------------------------------------|
2|---------------------------------------------------------|
3|----------7-7--------------------------------------------|
4|--7-7-7-7-7-7-7-7-7-7------------------------------------|
5|--7-7-7-7-5-5-7-7-7-7------------------------------------|
6|--5-5-5-5-----5-5-5-5------------------------------------|

  The Blitzkrieg Bop

1|---------------------------------------------------------|
2|---------------------------------------------------------|
3|------------------------------------------------7-7------|
4|--9-9-9-9-9-9-9-9-9-9-9-9-7-7-7-7-7-7-7-7-7-7-7-7-7-7-7--|
5|--9-9-9-9-9-9-9-9-9-9-9-9-7-7-7-7-7-7-7-7-7-7-7-5-5-7-7--|
6|--7-7-7-7-7-7-7-7-7-7-7-7-5-5-5-5-5-5-5-5-5-5-5-----5-5--|

  Hey ho, let's go
  Shoot'em in the back now

1|--------------------------------------------------------------------------|
2|--------------------------------------------------------------------------|
3|------------------------------------------------------------7-7--7/9--9-9-|
4|--9-9-9-9-9-9-9-9-9-9-9-9-7-7-7-7-7-7-7-7-7-7-7-9-9-9-9-9-9-7-7--7/9--9-9-|
5|--9-9-9-9-9-9-9-9-9-9-9-9-7-7-7-7-7-7-7-7-7-7-7-9-9-9-9-9-9-5-5--5/7--7-7-|
6|--7-7-7-7-7-7-7-7-7-7-7-7-5-5-5-5-5-5-5-5-5-5-5-7-7-7-7-7-7---------------|

  What they want, I don't know
  They're all reved up and ready to go

1|---------------------------------------------------------|
2|---------------------------------------------------------|
3|-------------7--7/9--9-9---------------------------------|x3
4|--7--7-7-7-7-7--7/9--9-9---------------------------------|
5|--7--7-7-7-7-5--5/7--7-7---------------------------------|
6|--5--5-5-5-5---------------------------------------------|

  They're forming in a straight line
  They're going through a tight wind
  The kids are losing their minds

1|---------------------------------------------------------|
2|---------------------------------------------------------|
3|----------7-7--------------------------------------------|
4|--7-7-7-7-7-7-7-7-7-7------------------------------------|
5|--7-7-7-7-5-5-7-7-7-7------------------------------------|
6|--5-5-5-5-----5-5-5-5------------------------------------|

  The Blitzkrieg Bop

1|---------------------------------------------------------|
2|---------------------------------------------------------|
3|-------------7--7/9--9-9---------------------------------|x3
4|--7--7-7-7-7-7--7/9--9-9---------------------------------|
5|--7--7-7-7-7-5--5/7--7-7---------------------------------|
6|--5--5-5-5-5---------------------------------------------|

  They're piling in the back seat
  They're generating steam heat
  Pulsating to the back beat

1|---------------------------------------------------------|
2|---------------------------------------------------------|
3|----------7-7--------------------------------------------|
4|--7-7-7-7-7-7-7-7-7-7------------------------------------|
5|--7-7-7-7-5-5-7-7-7-7------------------------------------|
6|--5-5-5-5-----5-5-5-5------------------------------------|

  The Blitzkrieg Bop
  Hey ho, let's go

exibições 8.650
Acordes para:
    Composição: Ramones Colaboração e revisão:
    • Aerson Moreira
    • felipe fernades

    0 comentários

    mostrar mais comentários

    Conseguiu tocar?

    7 tocaram 0 ainda não

    Grave um vídeo tocando Blitzkrieg Bop e mande pra gente!

    00:00 / 00:00
    outros vídeos desta música
    repetir qualidade Automático
    Outros vídeos desta música
    00:00 / 00:00
    Automático
    OK