Cifra Club

Aprenda

Born To Die In Berlin

Ramones

Tab de baixo: Principal
Intro (4x)
G|---------------------------------------------------------------------|
D|---------------------------------------------------------------------|
A|---------------------------------------------------------------------|
E|-33-1-3-1-3-1--------------------------------------------------------|


Verso (4x)
G|---------------------------------------------------------------------|
D|---------------------------------------------------------------------|
A|----------11111111---------------------------------------------------|
E|-33333333----------00000000-33-1-3-1-3-1--33-1-3-1-3-1---------------|


Refrão (Sometimes I feel like screaming, Sometimes I feel I just can't win...)
G|---------------------------------------------------------------------|
D|---------------------------------------------------------------------|  2x
A|----------11111111111111111------------------------------------------|
E|-33333333-------------------33-1-3-1-3-1--33-1-3-1-3-1---------------|


(Maybe I was born to die in Berlin)
G|---------------------------------------------------------------------|
D|---------------------------------------------------------------------|  1x
A|----------11111111111111111------------------------------------------|
E|-33333333------------------------------------------------------------|


G|---------------------------------------------------------------------|
D|---------------------------------------------------------------------|  4x
A|---------------------------------------------------------------------|
E|-33-1-3-1-3-1--------------------------------------------------------|


Outro (Küss mich jetzt, Mädchen, es ist alles wahr...) (4x)

G|---------------------------------------------------------------------|
D|---------------------------------------------------------------------|  
A|---------------------------------------------------------------------|
E|-333333333333333-11111111-313----------------------------------------|
Composição de Dee Dee Ramone
Colaboração e revisão:
  • Pedro Lara
265 exibições

0 comentários

Mostrar mais comentários

Conseguiu tocar?

1 Tocaram 0 Ainda não

Grave um vídeo tocando Born To Die In Berlin e mande pra gente!

00:00 / 00:00
outros vídeos desta música
repetir qualidade Automático
Outros vídeos desta música
00:00 / 00:00
Automático

Cifra Club Pro

Aproveite o Cifra Club com benefícios exclusivos e sem anúncios
7 dias grátis
Cifra Club Pro
Aproveite o Cifra Club com benefícios exclusivos e sem anúncios
7 dias grátis
OK