Cifra Club

Aprenda

California sun

Ramones

Cifra: Versão 5 (violão e guitarra)
tom: A
INTRO:
e|------------------------------------------------------|
B|------------------------------------------------------|
G|------------------------------------------------------|
D|--2--2-2-2-2-------4--4-4-4-4-------------------------| (5 vezes)
A|--0--0-0-0-0-------0--0-0-0-0-------------------------|
E|------------------------------------------------------|

e|------------------------------------------------------|
B|------------------------------------------------------|
G|------------------------------------------------------|
D|--2--2-2-2-2-------4--4-4-----------------------------| 
A|--0--0-0-0-0-------0--0-0-----------------------------|
E|------------------------------------------------------|

Well I'm going out west where I belong
e|------------------------0----|
B|---------0--0--0-0--2-2---0--|
G|------1----------------------|
D|--2-2------------------------|
A|-----------------------------|
E|-----------------------------|

Where the days are short and the nights are long
e|------------------------0----|
B|---------0--0--0-0--2-2---0--|
G|------1----------------------|
D|--2-2------------------------|
A|-----------------------------|
E|-----------------------------|

Nessa parte abaixo você toca simultaneamente com a letra da musica...xD..

e|------------------------------------------------------|
B|------------------------------------------------------|
G|------------------------------------------------------|
D|--2--2-2-2-2-------4--4-4-4-4-------------------------|
A|--0--0-0-0-0-------0--0-0-0-0-------------------------|
E|------------------------------------------------------|
      They walk  and I'll walk

e|------------------------------------------------------|
B|------------------------------------------------------|
G|------------------------------------------------------|
D|--2--2-2-2-2-------4--4-4-4-4-------------------------|
A|--0--0-0-0-0-------0--0-0-0-0-------------------------|
E|------------------------------------------------------|
       They fish and I'll fish

e|------------------------------------------------------|
B|------------------------------------------------------|
G|------------------------------------------------------|
D|--2--2-2-2-2-------4--4-4-4-4-------------------------|
A|--0--0-0-0-0-------0--0-0-0-0-------------------------|
E|------------------------------------------------------|
      They sin and I'll sin

e|------------------------------------------------------|
B|------------------------------------------------------|
G|------------------------------------------------------|
D|--2--2-2-2-2-------4--4-4-4-4-------------------------|
A|--0--0-0-0-0-------0--0-0-0-0-------------------------|
E|------------------------------------------------------|
      They fly and I'll fly

e|------------------------------------------------------|
B|------------------------------------------------------|
G|------------------------------------------------------|
D|--2--2-2-2-2-2-2-2--------6---6-6---------------------|
A|--0--0-0-0-0-0-0-0--------4---4-4---------------------|
E|------------------------------------------------------|
    Where they're out they're having fun 

e|------------------------------------------------------|
B|------------------------------------------------------|
G|------------------------------------------------------|
D|--4--4-4----4-4-4--2-2--2-2-2-2-----------------------|
A|--0--0-0----2-2-2--0-0--0-0-0-0-----------------------|
E|------------------------------------------------------|
     In the war Californian sun

Well I'm going out west out on the coast
e|------------------------0----|
B|---------0--0--0-0--2-2---0--|
G|------1----------------------|
D|--2-2------------------------|
A|-----------------------------|
E|-----------------------------|

Where the Californian girls are really the most
e|------------------------0----|
B|---------0--0--0-0--2-2---0--|
G|------1----------------------|
D|--2-2------------------------|
A|-----------------------------|
E|-----------------------------|

e|------------------------------------------------------|
B|------------------------------------------------------|
G|------------------------------------------------------|
D|--2--2-2-2-2-------4--4-4-4-4-------------------------|
A|--0--0-0-0-0-------0--0-0-0-0-------------------------|
E|------------------------------------------------------|
      They walk  and I'll walk

e|------------------------------------------------------|
B|------------------------------------------------------|
G|------------------------------------------------------|
D|--2--2-2-2-2-------4--4-4-4-4-------------------------|
A|--0--0-0-0-0-------0--0-0-0-0-------------------------|
E|------------------------------------------------------|
       They fish and I'll fish

e|------------------------------------------------------|
B|------------------------------------------------------|
G|------------------------------------------------------|
D|--2--2-2-2-2-------4--4-4-4-4-------------------------|
A|--0--0-0-0-0-------0--0-0-0-0-------------------------|
E|------------------------------------------------------|
      They sin and I'll sin

e|------------------------------------------------------|
B|------------------------------------------------------|
G|------------------------------------------------------|
D|--2--2-2-2-2-------4--4-4-4-4-------------------------|
A|--0--0-0-0-0-------0--0-0-0-0-------------------------|
E|------------------------------------------------------|
      They fly and I'll fly

e|------------------------------------------------------|
B|------------------------------------------------------|
G|------------------------------------------------------|
D|--2--2-2-2-2-2-2-2--------6---6-6---------------------|
A|--0--0-0-0-0-0-0-0--------4---4-4---------------------|
E|------------------------------------------------------|
    Where they're out they're having fun 

e|------------------------------------------------------|
B|------------------------------------------------------|
G|------------------------------------------------------|
D|--4--4-4----4-4-4--2-2--2-2-2-2-----------------------|
A|--0--0-0----2-2-2--0-0--0-0-0-0-----------------------|
E|------------------------------------------------------|
     In the war Californian sun

Solo:
e|----------------------------|
B|----------------------------|                  
G|--9-9------------------9----|
D|---------9-9-9-9-11-11---9--|   (6 vezes)
A|------11--------------------|
E|----------------------------|

Well the girls are frisky in old 'Frisco
e|------------------------0----|
B|---------0--0--0-0--2-2---0--|
G|------1----------------------|
D|--2-2------------------------|
A|-----------------------------|
E|-----------------------------|

A pretty little chick wherever you go
e|------------------------0----|
B|---------0--0--0-0--2-2---0--|
G|------1----------------------|
D|--2-2------------------------|
A|-----------------------------|
E|-----------------------------|

e|------------------------------------------------------|
B|------------------------------------------------------|
G|------------------------------------------------------|
D|--2--2-2-2-2-------4--4-4-4-4-------------------------|
A|--0--0-0-0-0-------0--0-0-0-0-------------------------|
E|------------------------------------------------------|
      They walk  and I'll walk

e|------------------------------------------------------|
B|------------------------------------------------------|
G|------------------------------------------------------|
D|--2--2-2-2-2-------4--4-4-4-4-------------------------|
A|--0--0-0-0-0-------0--0-0-0-0-------------------------|
E|------------------------------------------------------|
       They fish and I'll fish

e|------------------------------------------------------|
B|------------------------------------------------------|
G|------------------------------------------------------|
D|--2--2-2-2-2-------4--4-4-4-4-------------------------|
A|--0--0-0-0-0-------0--0-0-0-0-------------------------|
E|------------------------------------------------------|
      They sin and I'll sin

e|------------------------------------------------------|
B|------------------------------------------------------|
G|------------------------------------------------------|
D|--2--2-2-2-2-------4--4-4-4-4-------------------------|
A|--0--0-0-0-0-------0--0-0-0-0-------------------------|
E|------------------------------------------------------|
      They fly and I'll fly

e|------------------------------------------------------|
B|------------------------------------------------------|
G|------------------------------------------------------|
D|--2--2-2-2-2-2-2-2--------6---6-6---------------------|
A|--0--0-0-0-0-0-0-0--------4---4-4---------------------|
E|------------------------------------------------------|
    Where they're out they're having fun 

e|------------------------------------------------------|
B|------------------------------------------------------|
G|------------------------------------------------------|
D|--4--4-4----4-4-4--2-2--2-2-2-2-----------------------|
A|--0--0-0----2-2-2--0-0--0-0-0-0-----------------------|
E|------------------------------------------------------|
     In the war Californian sun

e|------------------------------------------------------|
B|------------------------------------------------------|
G|------------------------------------------------------|
D|--2--2-2-2-2-2-2-2--------6---6-6---------------------|
A|--0--0-0-0-0-0-0-0--------4---4-4---------------------|
E|------------------------------------------------------|
    Where they're out they're having fun 

e|------------------------------------------------------|
B|------------------------------------------------------|
G|------------------------------------------------------|
D|--4--4-4----4-4-4--2-2--2-2-2-2-----------------------|
A|--0--0-0----2-2-2--0-0--0-0-0-0-----------------------|
E|------------------------------------------------------|
     In the war Californian sun
Composição de Henry Glover / Morris Levy
Colaboração e revisão:
  • Álvaro Silva
148 exibições
    • ½ Tom
    • A
    • Bb
    • B
    • C
    • Db
    • D
    • Eb
    • E
    • F
    • F#
    • G
    • Ab
  • Adicionar à lista

    0 comentários

    Ver todos os comentários

    Conseguiu tocar?

    0 Tocaram 0 Ainda não

    Grave um vídeo tocando California sun e nos envie!

    00:00 / 00:00
    Outros vídeos desta música
    Repetir Qualidade Automático
    Outros vídeos desta música
    00:00 / 00:00
    Automático

    Cifra Club Pro

    Aproveite o Cifra Club com benefícios exclusivos e sem anúncios
    Cifra Club Pro
    Aproveite o Cifra Club com benefícios exclusivos e sem anúncios
    OK