Cifra Club

Aprenda

Come On Now

Ramones

Tab de baixo: Principal
(intro)
G|-------------------|   |------|
D|-7-6~------5x8-----|   |------|
A|------9-7~-----7x8-|x2 |-7x16-|
E|-------------------|   |------|

(verso 1 - 2x)
G|--------------|   |---------|   |------|
D|--------------|   |---------|   |-5x16-|
A|------5x8-7x8-|x3 |-5x8-7x8-|x3 |------|
E|-5x16---------|   |---------|   |------|

(refrão)
G|--------------|   |-----------------------------------|
D|--------------|   |-7-6~------5x8-----9-8~------------|
A|------5x8-7x8-|x2 |------9-7~-----7x8------11-9~-9x24-|
E|-5x16---------|   |-----------------------------------|

(verso 2 - 2x)
G|-----------------|   |---------|   |------|
D|-----------------|   |---------|   |-7x16-|
A|-----5x8-7x8-9x8-|x3 |-7x8-9x8-|x3 |------|
E|-7x8-------------|   |---------|   |------|

(outro)
G|-----------------|
D|-----------------|
A|-----5x8-7x8-9x8-| 
E|-7x8-------------|
Composição de Dee Dee Ramone
Colaboração e revisão:
  • Paulo Ricardo
227 exibições

0 comentários

Mostrar mais comentários

Conseguiu tocar?

0 Tocaram 0 Ainda não

Grave um vídeo tocando Come On Now e mande pra gente!

00:00 / 00:00
outros vídeos desta música
repetir qualidade Automático
Outros vídeos desta música
00:00 / 00:00
Automático
OK