Cifra Club

Aprenda

Cretin Hop

Ramones

Tab de baixo: Principal
Espere a guitarra tocar duas vezes a introdução e aí comece:

Intro x2

G|-------------------------------
D|-------7-----------------------
A|-7-7-7---7-7-7-7-7-7-7-7-------
E|-------------------------5-5-5-

Verse x2

G|-----------------------------------------------------------------
D|-----------------------------------------------------------------
A|---------------------------------7-7-7-7-7-7-7-7-7-7-7-7-7-7-7-7-
E|-5-5-5-5-5-5-5-5-5-5-5-5-5-5-5-5---------------------------------

Chorus x2

G|-----------------------------------------------------------------
D|-----------------------------------------------------------------
A|---------------------------------7-7-7-7-7-7-7-7-7-7-7-7-7-7-7-7-
E|-7-7-7-7-7-7-7-7-7-7-7-7-7-7-7-7---------------------------------

Verse x2
Chorus x2
Intro x2
Break
Intro x1
Break
Intro x2
Verse x2
Chorus x2
Verse x2
Chorus x2
Intro x2
Break
Intro x1
Break
Intro x4

Outro

G|----
D|----
A|-7--
E|----



_______________________________________________________
Composição de Ramones
Colaboração e revisão:
  • Bruno
3.960 exibições

0 comentários

Mostrar mais comentários

Conseguiu tocar?

0 Tocaram 0 Ainda não

Grave um vídeo tocando Cretin Hop e mande pra gente!

00:00 / 00:00
outros vídeos desta música
repetir qualidade Automático
Outros vídeos desta música
00:00 / 00:00
Automático
OK