Cifra Club

Gimme Gimme Shock Treatment

Ramones

Tab de baixo: Principal
G|------------------------------------------------------     (4x)
D|------------------------------------------------------
A|-7-7-7-7-7-7-7-------------------5-5-5-5-5-5-5--------
E|-------------------5-5-5-5-5-5-5----------------------

G|----------------------------------------------------------
D|----------------------------------------------------------
A|-----------------------7-7-7-7-7-7-7-7-7-7-7-77-7-7-7-7-7-
E|-7-7-7-7-7-7-5-5-5-5-5------------------------------------
 I was feeling sick I was loosing my mind                                                       
 I heard about these treatments from a good friend of mine                                      
 He was always happy, smile on his face                                                         
 He said that he had a great time at the place   

G|----------------------------------------      (2x)
D|------------------------------4-4-4-4-4-
A|-------------7-7-7-7--4-4-4-4-----------
E|-7-7-7-7-7------------------------------                                               

Peace and love is here to stay                                                                 
And now I can wake up and face the day                                                         
Happy happy happy all the time                                                                 
Shock treatment I'm doing fine

G|-----------------------------
D|-----------------------------
A|-----------------------------
E|-3-3-3-3-3-3-3-5-5-5-5-5-5-5-
  Gimme gimme shock treatment                                                                     
  Gimme gimme shock treatment                                                                    
  Gimme gimme shock treatment                                                                    
  I wanna wanna shock treatment        

(repete tudo)
exibições 1.781
Composição: Ramones Colaboração e revisão:
  • Karyni D.
  • Enforcer Ramone

0 comentários

mostrar mais comentários

Conseguiu tocar?

0 tocaram 0 ainda não

Grave um vídeo tocando Gimme Gimme Shock Treatment e mande pra gente!

00:00 / 00:00
outros vídeos desta música
repetir qualidade Automático
Outros vídeos desta música
00:00 / 00:00
Automático
OK