Cifra Club

Aprenda

Happy Birthday Mr. Burns

Ramones

Tab de baixo: Principal
1 2 3 4"

G|---------------------------------------------------------------------------|
D|---------------------------------------------------------------------------|
A|---------------------------------------------------------------------------|
E|-4/5-5-5-5-5-5-5--4/5-5-5-5-5-5-5--4/5-5-5-5-5-5-5--4/5-5-5-5-5-5-5--------|


  "Happy   birthday to you! happy birthday!"
G|---------------------------------------------------------------------------|
D|---------------------------------------------------------------------------|
A|---------------------------------------------------------------------------|
E|-5-5-5-5-5-5-5-5-0-0-0-0-0-0-0-0-------------------------------------------|


  "Happy   birthday to you! happy birthday!"
G|---------------------------------------------------------------------------|
D|---------------------------------------------------------------------------|
A|---------------------------------------------------------------------------|
E|-0-0-0-0-0-0-0-0-5-5-5-5-5-5-5-5-------------------------------------------|


   "Happy   birthdaaayy    Burnsy"
G|---------------------------------------------------------------------------|
D|---------------------------------------------------------------------------|
A|-----------------5-5-5-5-5-5-5-5-------------------------------------------|
E|-5-5-5-5-5-5-5-5-----------------------------------------------------------|


   "Happy   birthdaay   to you!!!"
G|---------------------------------------------------------------------------|
D|---------------------------------------------------------------------------|
A|---------7-7-7-7-----------------------------------------------------------|
E|-5-5-5-5---------5-5-5-5-5-------------------------------------------------|
Composição de Mildred Hill / Patty Smith Hill
Colaboração e revisão:
  • Aerson Moreira
1.388 exibições

0 comentários

Mostrar mais comentários

Conseguiu tocar?

0 Tocaram 0 Ainda não

Grave um vídeo tocando Happy Birthday Mr. Burns e mande pra gente!

00:00 / 00:00
outros vídeos desta música
repetir qualidade Automático
Outros vídeos desta música
00:00 / 00:00
Automático

Cifra Club Pro

Aproveite o Cifra Club com benefícios exclusivos e sem anúncios
7 dias grátis
Cifra Club Pro
Aproveite o Cifra Club com benefícios exclusivos e sem anúncios
7 dias grátis
OK