Cifra Club

Here Today, Gone Tomorrow

Ramones

Tab de baixo: Principal
G|---------------------------------------------------
D|---------------------------------------------------
A|-5-5-5-5-5-5-5-5-5-5-5-----------------------------
E|------------------------------2-2-2-2-2-2-2-2------
    Oh oh oh, oh oh oh       I love you

G|---------------------------------------------------
D|---------------------------------------------------
A|-5-5-5-5-5-5-5-5-5-5-5-----------------------------
E|------------------------------2-2-2-2-2-2-2-2------
    Oh oh oh, oh oh oh       I love you

G|------------------------------
D|------------------------------
A|-7-7--5-5------7-7--5-5-------
E|------------------------------
    I do,  I do      I do, I do

G|---------------------------------------------
D|---------------------------------------------
A|-5-5-5-5-5--7-7-7-7--------------------------
E|-------------------------2-2-2-2-2-2-2-2-----
But I told her why we just can't make it

G|---------------------------------------------
D|---------------------------------------------
A|-5-5-5-5-5--7-7-7-7--------------------------
E|-------------------------2-2-2-2-2-2-2-2-----
I want you still but just can't take it

G|---------------------------------------------
D|---------------------------------------------
A|-5-5-5-5-5--7-7-7-7--------------------------
E|-------------------------2-2-2-2-2-2-2-2-----
The time has come we oughta break it

G|------------------------------------------
D|------------------------------------------
A|-7-7-7-7-7-7-7-7-7-7-7-5-5-5-5-5-5--------
E|------------------------------------------
Someone had to pay the price


G|---------------------------------------------------
D|---------------------------------------------------
A|-5-5-5-5-5-5-5-5-5-5-5-----------------------------
E|------------------------------2-2-2-2-2-2-2-2------
      Oh oh oh, oh oh oh        it's over


G|---------------------------------------------------
D|---------------------------------------------------
A|-5-5-5-5-5-5-5-5-5-5-5-----------------------------
E|------------------------------2-2-2-2-2-2-2-2------
      Oh oh oh, oh oh oh        it's over


G|------------------------------
D|------------------------------
A|-7-7--5-5------7-7--5-5-------
E|------------------------------                        (2x)
     It´s true,       It´s true 

   And I think of times we were together
   As time went on it seemed forever
   But times have changed now things are better
   Someone had to pay the price

[solo de guitarra]

   And I think of times we were together
   As time went on it seemed forever
   But times have changed now things are better

G|---------------------------------------------
D|---------------------------------------------
A|-5-5-5-5-5--7-7-7-7--------------------------
E|-------------------------2-2-2-2-2-2-2-2-----   (2x)

Someone had to pay the price.
exibições 2.697
Composição: Ramones Colaboração e revisão:
  • Enforcer Ramone

0 comentários

mostrar mais comentários

Conseguiu tocar?

0 tocaram 0 ainda não

Grave um vídeo tocando Here Today, Gone Tomorrow e mande pra gente!

00:00 / 00:00
outros vídeos desta música
repetir qualidade Automático
Outros vídeos desta música
00:00 / 00:00
Automático
OK