I Believe In Miracles

Ramones

Composição de: Daniel Rey / Dee Dee Ramone
tom: B
(Dee Dee Ramone/Daniel Rey)

B    F#  G    E  (3 vezes)            
A 

B        F#      G        E 
I used to be on an endless run
Believe in miracles 'cause I'm one
I have been blessed with the power to survive
A                                    E
After all these years I'm still alive

B        F#      G        E 
I'm out here cookin' with the band
I am no longer a solitary man
Every day my time runs out
A                                    E
Lived like a fool, that's what I was about, oh



   B       A    G 
   I believe in miracles
   I believe in a better world for me and you     
   Oh, I believe in miracles
   I believe in a better world for me and you

E

B        F#      G        E 
Tattoo your name on my arm 
I always said my girl's my good luck charm
If she could find a reason to forgive
A                                    E
Then I could find a reason to live

B        F#      G        E 
I used to be on an endless run
Believe in miracles 'cause I'm one
I have been blessed with the power to survive
A                                    E
After all these years I'm still alive



   B       A    G 
   I believe in miracles
   I believe in a better world for me and you     
   Oh, I believe in miracles
   I believe in a better world for me and you




A                            G
I close my eyes and think how it might be
A                         G                  
The future's here today, it's not too late,
A
it's not too late, yeah!

Solo:
e|---------------------------------------------------------------------------|
B|---------------------------------------------------------------------------|
G|-------------------------------7-9b-9b-7-----------------------------------|
D|-9b-9b-9b-9b-9b~--7h9-9b~--7-9-----------9~--------------------------------|
A|---------------------------------------------------------------------------|
E|---------------------------------------------------------------------------|

e|---------------------------------------------------------------------------|
B|-12-10-8-7---7--------------12~------12~-----------------------------------|
G|-----------9---9--11~---9b-------11b---------------------------------------|
D|---------------------------------------------------------------------------|
A|---------------------------------------------------------------------------|
E|---------------------------------------------------------------------------|


   B       A    G 
   I believe in miracles
   I believe in a better world for me and you     
   Oh, I believe in miracles
   I believe in a better world for me and you



[ B    F#  G    E ] x3
                              
A 


   REFRÃO:
   B       A    G 
   I believe in miracles
   I believe in a better world for me and you     
   Oh, I believe in miracles
   I believe in a better world for me and you




[ B    F#  G    E ] x4

B 
Página 1 / 1

Letras e título
Acordes e artista

resetar configurações
OK