Cifra Club

Aprenda

I Believe In Miracles

Ramones

Tab de baixo: Principal
[Intro]

G|-------------------------------|
D|-------------------------------|	
A|-----------------------7-7-----|
E|-7-7-7-7--2-2-3-3-3-3----------|

G|-------------------------------|
D|-------------------------------|	
A|-----------------------7-7-----|
E|-7-7-7-7--2-2-3-3-3-3----------|

G|--------------------------------|
D|--------------------------------|	
A|--------------------------------|
E|-7-7-7-7--2-2-3-3-3-3-3-3-3-3-5-|

G|-------------------------------|
D|-------------------------------|
A|-------------------------------|
E|-5-5-5-5-5-5-5-5-5-5-5-5-5-5-5-|

[Verso]

G|-------------------------------|
D|-------------------------------|	
A|-----------------------7-7-----|
E|-7-7-7-7--2-2-3-3-3-3----------|

G|-------------------------------|
D|-------------------------------|	
A|-----------------------7-7-----|
E|-7-7-7-7--2-2-3-3-3-3----------|

G|--------------------------------|
D|--------------------------------|	
A|--------------------------------|
E|-7-7-7-7--2-2-3-3-3-3-3-3-3-3-5-|

G|-------------------------------|
D|-------------------------------|
A|-------------------------7-7---|
E|-5-5-5-5-5-5-5-5-5-5-5-5-------|

[Refrão]

G|--------------|
D|--------------| (x4)
A|--------------|
E|--7---5---3---|


[Ponte]

G|---------------------|
D|---------------------|
A|---------------------|
E|--5---3---5---3---5--|

[Solo]

G|-------------------------------|
D|-------------------------------|	
A|-----------------------7-7-----|
E|-7-7-7-7--2-2-3-3-3-3----------|

G|-------------------------------|
D|-------------------------------|	
A|-----------------------7-7-----|
E|-7-7-7-7--2-2-3-3-3-3----------|

G|--------------------------------|
D|--------------------------------|	
A|--------------------------------|
E|-7-7-7-7--2-2-3-3-3-3-3-3-3-3-5-|

G|-------------------------------|
D|-------------------------------|
A|-------------------------------|
E|-5-5-5-5-5-5-5-5-5-5-5-5-5-5-5-|

[Outro]

G|-------------------------------|
D|-------------------------------| (3x)
A|-----------------------7-7-----|
E|-7-7-7-7--2-2-3-3-3-3----------|

G|----|
D|----|
A|--7-|
E|----|
Composição de Daniel Rey / Dee Dee Ramone
Colaboração e revisão:
21.355 exibições

0 comentários

Mostrar mais comentários

Conseguiu tocar?

5 Tocaram 0 Ainda não

Grave um vídeo tocando I Believe In Miracles e mande pra gente!

00:00 / 00:00
outros vídeos desta música
repetir qualidade Automático
Outros vídeos desta música
00:00 / 00:00
Automático

Cifra Club Pro

Aproveite o Cifra Club com benefícios exclusivos e sem anúncios
7 dias grátis
Cifra Club Pro
Aproveite o Cifra Club com benefícios exclusivos e sem anúncios
7 dias grátis
OK