I Just Wanna Have Something To Do

Ramones

Composição: Ramones
(começo, toca isso ali duas vezes)
G|-------------------------------
D|-------------------------------
A|-------------------------------
E|-5-5-5-5-5-5--3--1-1-1-1-1-1-3-

G|-------------------------------
D|-------------------------------
A|-------------------------------
E|-5-5-5-5-5-5-5-1-1-1/3-3-3-3-3-
   Hanging out on Second Avenue   

G|-------------------------------
D|-------------------------------
A|-------------------------------
E|-5-5-5-5-5-5-5-1-1-1/3-3-3-3-3-
  Eating chicken vindalooo 

G|-------------------------------
D|-------------------------------
A|-------------------------------
E|-5-5-5-5-5-5-5-1-1-1/3-3-3-3-3-
  I just want to be with you  

G|----------------------------------
D|----------------------------------
A|----------------------------------
E|-5-5-5-5-5-5-5-5-5-5-5-5-5-5-5-5--
I just wanna have something to do    

G|----------------------------
D|----------------------------
A|----------------------------
E|-1-1-1-1-3-3-3-3-5-5-5-5-5--
 Tonight, tonight, tonight   

G|----------------------------
D|----------------------------
A|----------------------------
E|-1-1-1-1-3-3-3-3-5-5-5-5-5--
Tonight, tonight, well all right

G|----------------------------
D|----------------------------
A|----------------------------
E|-1-1-1-1-3-3-3-3-5-5-5-5-5--
 Tonight, tonight, tonight 

G|----------------------------
D|----------------------------
A|----------------------------
E|-1-1-1-1-3-3-3-3-5-5-5-5-5--
 Tonight, tonight, tonight 

G|-------------------------------
D|-------------------------------
A|-------------------------------
E|-5-5-5-5-5-5--3--1-1-1-1-1-1-3-
              Wait             now!

G|-------------------------------
D|-------------------------------
A|-------------------------------
E|-5-5-5-5-5-5--3--1-1-1-1-1-1-3-
              Wait             now!


G|-------------------------------
D|-------------------------------
A|-------------------------------
E|-5-5-5-5-5-5-5-1-1-1/3-3-3-3-3-
     Hangin out  all by miself 

G|-------------------------------
D|-------------------------------
A|-------------------------------
E|-5-5-5-5-5-5-5-1-1-1/3-3-3-3-3-
   I dont wanna be with anybody else

G|-------------------------------
D|-------------------------------
A|-------------------------------
E|-5-5-5-5-5-5-5-1-1-1/3-3-3-3-3-
  I just want to be with you  

G|----------------------------------
D|----------------------------------
A|----------------------------------
E|-5-5-5-5-5-5-5-5-5-5-5-5-5-5-5-5--
I just wanna have something to do    

G|----------------------------
D|----------------------------
A|----------------------------
E|-1-1-1-1-3-3-3-3-5-5-5-5-5--
 Tonight, tonight, tonight   

G|----------------------------
D|----------------------------
A|----------------------------
E|-1-1-1-1-3-3-3-3-5-5-5-5-5--
Tonight, tonight, well all right

G|----------------------------
D|----------------------------
A|----------------------------
E|-1-1-1-1-3-3-3-3-5-5-5-5-5--
 Tonight, tonight, tonight 

G|----------------------------
D|----------------------------
A|----------------------------
E|-1-1-1-1-3-3-3-3-5-5-5-5-5--
 Tonight, tonight, tonight 

G|-------------------------------
D|-------------------------------
A|-------------------------------
E|-5-5-5-5-5-5--3--1-1-1-1-1-1-3-
              Wait             now!

G|-------------------------------
D|-------------------------------
A|-------------------------------
E|-5-5-5-5-5-5--3--1-1-1-1-1-1-3-
              Wait             now!

G|-------------------------------
D|-------------------------------
A|-------------------------------
E|-5-5-5-5-5-5-5-1-1-1/3-3-3-3-3-
     Hangin out  all by miself 

G|-------------------------------
D|-------------------------------
A|-------------------------------
E|-5-5-5-5-5-5-5-1-1-1/3-3-3-3-3-
   I dont wanna be with anybody else

G|-------------------------------
D|-------------------------------
A|-------------------------------
E|-5-5-5-5-5-5-5-1-1-1/3-3-3-3-3-
  I just want to be with you  

G|----------------------------------
D|----------------------------------
A|----------------------------------
E|-5-5-5-5-5-5-5-5-5-5-5-5-5-5-5-5--
I just wanna have something to do    

G|----------------------------
D|----------------------------
A|----------------------------
E|-1-1-1-1-3-3-3-3-5-5-5-5-5--
 Tonight, tonight, tonight   

G|----------------------------
D|----------------------------
A|----------------------------
E|-1-1-1-1-3-3-3-3-5-5-5-5-5--
Tonight, tonight, well all right

G|----------------------------
D|----------------------------
A|----------------------------
E|-1-1-1-1-3-3-3-3-5-5-5-5-5--
 Tonight, tonight, tonight 

G|----------------------------
D|----------------------------
A|----------------------------
E|-1-1-1-1-3-3-3-3-5-5-5-5-5--
 Tonight, tonight, tonight
Página 1 / 1

Letras e título
Acordes e artista

resetar configurações
OK