I Wanna Be Sedated

Ramones

Composição de: Ramones
tom: E
Intro: E5 (Riff 2x)
     P.M . . . . . . . . . . . . .
E|------------------------------------------
B|------------------------------------------
G|-8---9---9---9---9---9---9---9------------
D|-9---9---9---9---9---9---9---9------------
A|-7-7-7-7-7-7-7-7-7-7-7-7-7-7-7-7----------
E|------------------------------------------


  E5
Twenty-twenty-twenty four hours to go
A5               E5
   I wanna be sedated

Nothin' to do and no where to go-o-oh
A5               E5
   I wanna be sedated

      B5                    E5
Just get me to the airport put me on a plane
 B5                  E5
Hurry hurry hurry before I go insane
   B5                         E5
I can't control my fingers I can't control my brain
    A5           B5
Oh no no no no no

( E5 )

  E5
Twenty-twenty-twenty four hours to go
A5               E5
   I wanna be sedated

Nothin' to do and no where to go-o-oh
A5               E5
   I wanna be sedated

      B5                       E5
Just put me in a wheelchair and get me on a plane
 B5                  E5
Hurry hurry hurry before I go insane
   B5                         E5
I can't control my fingers I can't control my brain
    A5          B5
Oh no no no no no

Solo: E5  A5  B5  E5 (2x)
      D#5 / E5
E|---------------------------------------------------
B|-5--5--5--5--5--5--5--5--5--5--5--5--5--5--5--5----
G|---------------------------------------------------  (4x)
D|---------------------------------------------------
A|---------------------------------------------------
E|---------------------------------------------------


  F#5
Twenty-twenty-twenty four hours to go
B5               F#5
   I wanna be sedated

Nothin' to do and no where to go-o-oh
B5               F#5
   I wanna be sedated

      C#5                    F#5
Just put me in a wheelchair get me to the show
 C#5                 F#5
Hurry hurry hurry before I go loco
   C#5                        F#5
I can't control my fingers I can't control my toes
    B5          C#5
Oh no no no no no

( F#5 )

  F#5
Twenty-twenty-twenty four hours to go
B5               F#5
   I wanna be sedated

Nothin' to do and no where to go-o-oh
B5
   I wanna be sedated

      C#5                    F#5
Just put me in a wheelchair get me to the show
 C#5                 F#5
Hurry hurry hurry before I go loco
   C#5                        F#5
I can't control my fingers I can't control my toes
    B5          C#5
Oh no no no no no

 F#5               B5           C#5               F#5
Ba-ba-bamp-ba  ba-ba-ba-bamp-ba     I wanna be sedated
 F#5               B5           C#5               F#5
Ba-ba-bamp-ba  ba-ba-ba-bamp-ba     I wanna be sedated
Riff Final:

E|----------------------------------------------------
B|-7-7-7-7-7-7-7-7-7-7-7-7-7-7-7-7-7-7-7-7-7-7-7-7-7-7
G|----------------------------------------------------
D|----------------------------------------------------
A|----------------------------------------------------
E|----------------------------------------------------

E|----------------------------------------------------
B|-7-7-7-7-7-7-7-7-7-7-7-7-7-7-7-7-7-7-7-7-7-7-7-7-7-7
G|----------------------------------------------------
D|----------------------------------------------------
A|----------------------------------------------------
E|----------------------------------------------------

E|----------------------------------------------------
B|-7-7-7-7-7-7----------------------------------------
G|----------------------------------------------------
D|----------------------------------------------------
A|----------------------------------------------------
E|----------------------------------------------------


 F#5               B5           C#5               F#5
Ba-ba-bamp-ba  ba-ba-ba-bamp-ba     I wanna be sedated
 F#5               B5           C#5               F#5
Ba-ba-bamp-ba  ba-ba-ba-bamp-ba     I wanna be sedated
Página 1 / 1

Letras e título
Acordes e artista

resetar configurações
OK