Cifra Club

Aprenda

Time Has Come Today

Ramones

Tab de baixo: Principal
(intro)
G|---------------------------------|
D|---------------------------------|
A|-5-------3---------------5-------|
E|-----------------3---------------|

G|---------------------------------|
D|---------------------------------|
A|-5-------3---------------5-5-5-5-|
E|-----------------3---------------|

(riff 6x)              
G|---------------------------------|
D|---------------------------------|
A|-5-5-5-5-3-3-3-3---------5-5-5-5-|
E|-----------------3-3-3-3---------|

(intervalo)
G|-----------------------------------------------------------------|
D|-----------------------------------------------------------------|
A|-5-5-5-5-5-5-5-5-3-3-3-3-3-3-3-3---------------------------------|
E|---------------------------------5-5-5-5-5-5-5-5-5-5-5-5-5-5-5-5-|

(riff 8x)             
G|---------------------------------|
D|---------------------------------|
A|-5-5-5-5-3-3-3-3---------5-5-5-5-|
E|-----------------3-3-3-3---------|

(intro)
G|---------------------------------|
D|---------------------------------|
A|-5-------3---------------5-5-5-5-|
E|-----------------3---------------|

(riff 12x)              
G|---------------------------------|
D|---------------------------------|
A|-5-5-5-5-3-3-3-3---------5-5-5-5-|
E|-----------------3-3-3-3---------|

("Time! Time! Time! " at 2:54 ) 
G|-----------------------------------------------------------------|
D|-----------------------------------------------------------------|
A|-5-5-5-5-5-5-5-5-5-5-5-5-5-5-5-5-5-5-5-5-5-5-5-5-5-5-5-5-5-5-5-5-|
E|-----------------------------------------------------------------|

(riff 14x)            
G|---------------------------------|
D|---------------------------------|
A|5-5-5-5-3-3-3-3---------5-5-5-5--|
E|-----------------3-3-3-3---------|
Composição de Joseph Chambers / Willie Chambers
Colaboração e revisão:
  • Paulo Ricardo
200 exibições

0 comentários

Mostrar mais comentários

Conseguiu tocar?

0 Tocaram 0 Ainda não

Grave um vídeo tocando Time Has Come Today e mande pra gente!

00:00 / 00:00
outros vídeos desta música
repetir qualidade Automático
Outros vídeos desta música
00:00 / 00:00
Automático

Cifra Club Pro

Aproveite o Cifra Club com benefícios exclusivos e sem anúncios
7 dias grátis
Cifra Club Pro
Aproveite o Cifra Club com benefícios exclusivos e sem anúncios
7 dias grátis
OK