Black Derby Jacket

Rancid

tom: G
i know i missed up this is a bass tab Cant change it tho so hope you wanted a bass tab


VERSE X2 come in at :07 or :08 play 24 X's
|----------------|
|----------------|
|----0*-543*-5---|
|-3*----------3*-|

CHORUS1  play 6-7 X's
|--o----2---------o------------|
|--o--5-------5---o------------|
|--o--------3-----o-2-2-3-3----|
|--o-----X-3------o------------|

BRIDGE  X2
|----------7-5-3-0-00-0------------7-5-3--0-00-0----------------- 
|-024-5-55------------------0-5-55-------------------------------  
|-----------------------2-3----------------------2-3-5-----------  
|----------------------------------------------------------------


CHORUS2 play 6X                    
                                   
|--|--4-444-5-555--9--9-9-9-7-777--|--------------|
|--|--5-555-7-777-10-101010-9-999--|--------------|  then play BRIDGE
|--|-------------------------------|-2h-2h-3h-3h--|
|--|-------------------------------|--------------|

OUTRO X5
|--o-----X5------o-----------|
|--o------5------o-------5~--|
|--o---320--320--o---320-----|
|--o-3-----------o-3---------|
Página 1 / 1

Letras e título
Acordes e artista

resetar configurações
OK