Cifra Club

Aprenda

Cash Culture And Violence

Rancid

Tab de baixo: Principal
Já pensou em usar uma coleção de roupas do Cifra Club? Responda as perguntas abaixo e nos ajude nessa missão! →
Ok this isnt 100% buts its a fucking hard song! Matt Freeman is a god!
Standard tuning EADG
And played ultra fast                            Tabbed by Rob
Any comments,E-mail me at           *                         

Intro/Verse                         Then play this varyation before                              the fills
                                        
|----------------------------------|----------------------------------|
|----------------------------------|-------------------------------1--|
|-----1---2---3-4-----1---2---3----|-----1---2---3-4-----1---2---3----|
|-1-1---1---1-----1-1---1---1---4--|-1-1---1---1-----1-1---1---1------|

1st Fill

|---------------------------------|
|-3-1---1--2--3--3--1---1---1-----|
|-----3----------------3---3-------|
|---------------------------------|

2nd Fill

|-3--1--3-1--------1-3-1----------|
|------------3--3---------3/1-----|
|---------------------------------|
|---------------------------------|

3rd Fill

|---------------------------------|
|-3--1--0-------------------------|
|----------3--1--0----------------|
|-------------------3-------------|

Chorus

|-------------------------------------------------------10---10---10---10-|
|-3-3-3-3-3-3-3-3-5-5-5-5-5-5-5-5-5-5-8-8-8-8-8-8-8-8-8----8----8----8----|
|-------------------------------------------------------------------------|
|-------------------------------------------------------------------------|

On the 4th time play this

|-----------------------------------|
|-3-3-3-3-3-3-3-3-5-5-5-5-5-5-5-5-8-|
|-----------------------------------|
|-----------------------------------|

Solo

|-----------------------------------------------------2-2-3-3-5-5-|
|-----------------2-2-3-3-4-4-5-5-----2-2-3-3-4-4-5-5-------------|
|-----2-2-3-3-5-5-----------------3-3-----------------------------|
|-3-3-------------------------------------------------------------|

|-----5-5-6-6-7-7-8-8-7-7-5-5-3-3-5-5-3-3-2-2---------------------|
|-5-5-----------------------------------------5-5-3-3-2-2---------|
|---------------------------------------------------------5-5-3-3-|
|-----------------------------------------------------------------|

Outro

|------------------10-------------|
|--3-------5-------8--------------|
|---------------------------------|
|---------------------------------|

Order

Introx3
1st fillx1
Versex3
2nd fillx1
Versex4
Solox1
Versex3
1st fillx1
Versex4
Chorusx4
3rd fillx1
Versex3
2nd fillx1
Versex4
Chorusx4
3rd fillx1
Solox1
Chorusx4
3rd fillx1
Versex4
Outrox1

Thats it!
Have fun
Composição de Tim Armstrong
208 exibições

0 comentários

Ver todos os comentários

Conseguiu tocar?

0 Tocaram 0 Ainda não

Grave um vídeo tocando Cash Culture And Violence e nos envie!

00:00 / 00:00
Outros vídeos desta música
Repetir Qualidade Automático
Outros vídeos desta música
00:00 / 00:00
Automático

Cifra Club Pro

Aproveite o Cifra Club com benefícios exclusivos e sem anúncios
Cifra Club Pro
Aproveite o Cifra Club com benefícios exclusivos e sem anúncios
OK