Dead Bodies

Rancid

tom: Ab
Intro
e:---------------------------------------------------------------
b:---------------------------------------------------------------
g:----11--14--11-------------------------------------------------
d:-12------------11--12----11--14--11-----------------------12(8x)     2x
a:----------------------12------------14--12--13(4x)-10(4x)------
E:---------------------------------------------------------------

Verse
e:---------------------------------------------------------------
b:---------------------------------------------------------------
g:---------------------------------------------------------------
d:-12--7-7--8-8--5-5-5-5-----------------------------------------      7x
a:-12--7-7--8-8--5-5-5-5-----------------------------------------
E:---------------------------------------------------------------

Chorus
e:---------------------------------------------------------------
b:---------------------------------------------------------------
g:---------------------------------------------------------------
d:-12------------7--8----5---------------------------------------      2x      
a:-12-----12-----7--8----5---------------------------------------
E:--------12-----------------------------------------------------
Página 1 / 1

Letras e título
Acordes e artista

resetar configurações
OK