I Wanna Riot

Rancid

Composição de: Tim Armstrong
tom: D
Intro (2x)

e|-------------------------------------|
B|--7----10---12-----7--7----10---12---|
G|--7----10---12-----7--7----10---12---|
D|--7----10---12-----7--7----10---12---|
A|--5----8----10-----5--5----8----10---|
E|-------------------------------------|

    D                          F               G
e|---------------------------------------------------------------|
B|---------------------------------------------------------------|
G|.-------------------------------------------------------------.|
D|.--3-3-3--3--2--3--6--7-------3-3-3--3--3--2--5---5--5--3--2--.|
A|------------------------5--------------------------------------|
E|---------------------------------------------------------------|


Canto:

D D F G


I saw a man, get the beat dead
Took his money outta his wallet and fell dead on the curb
I saw them gather celebrate the crime
Teacher knows were bout to learn a lesson of their kind
I raised my hand, I got another question
If I start a riot, will I get protection?
Cause I'm the kid who got a lot of problems
If I throw a brick maybe the brick will go and solve them

Oh, yeah, I wanna riot!  
Oh, yeah, I wanna riot!

I'm boiling up, city's on heat
Red alert tension, you know it's on the street
Code blue, city of the dead
Silence of the night with the lights bloody red
See how we do this, see how we ride
Throw a brick, light a fuse, it starts to blow, duck inside
Your statistic hammered on my brain
Brand it with another, another pawn in the game

Oh, yeah, I wanna riot!
Oh, yeah, I wanna riot!  

In front of me the bakery
Gettin outta line, a dine in, burnin' burglary
My place is burning, burning so quick
Burning like a candle at the end of its wick
Phil, I turned the dial, I turned the channel
I turned it to a monster fight on the eternal battle
I need some help man, there is no doubt
If I'm gonna go down I'm gonna take somebody out

Oh, yeah, I wanna riot!
Oh, yeah, I wanna riot!
Oh, yeah, I wanna riot!
Oh, yeah, I wanna riot!
Riot!
Página 1 / 1

Letras e título
Acordes e artista

resetar configurações
OK