Cifra Club

Aprenda

I Wanna Riot

Rancid

Tab de baixo: Principal
Já pensou em usar uma coleção de roupas do Cifra Club? Responda as perguntas abaixo e nos ajude nessa missão! →
                               I WANNA RIOT - Rancid


Intro/outro
G||----------------7-6-5--------
D||--0-3-5-0-0-3-5-------7-7-6-5
A||-----------------------------
E||-----------------------------

Preverse  3x                                            
G||--------------2-2---------------------
D||--0-0-0-0---0-----0--3-2-3-4-5-5-4-4-3
A||----------3---------------------------
E||--------------------------------------

Preverse 4th time only
G||--------------2-2------------------------------------
D||--0-0-0-0---0-----0--3-2-3-4-5-5-4-4-3-0-3-5-0-0-3-5-
A||----------3------------------------------------------
E||-----------------------------------------------------

Verse- 4x
G||----------------------------------
D||----------------------------------
A||--5-4-3-0-5-4-3-0------------2-3-4
E||-------------------1-0-1-2-3------

Chorus- 2x
G||-----2----4-0-----2----4-0-----2----4-0-----2----4-0------
D||-0-3---3------0-3---3------0-3---3------0-3---3------0-3-5
A||----------------------------------------------------------
E||----------------------------------------------------------

order-
intro
preverse
verse
chorus
verse
chorus
preverse
verse
chorus
outro


_______________________________________________________
Contribuição: Marcello Costa Maccarini(mcmaccarini@bol.com.br)
Composição de Tim Armstrong
1.821 exibições

0 comentários

Ver todos os comentários

Conseguiu tocar?

0 Tocaram 0 Ainda não

Grave um vídeo tocando I Wanna Riot e nos envie!

00:00 / 00:00
Outros vídeos desta música
Repetir Qualidade Automático
Outros vídeos desta música
00:00 / 00:00
Automático

Cifra Club Pro

Aproveite o Cifra Club com benefícios exclusivos e sem anúncios
Cifra Club Pro
Aproveite o Cifra Club com benefícios exclusivos e sem anúncios
OK