Cifra Club

Aprenda

Jimmy And Johnny

Rancid

Cifra: Principal (violão e guitarra)
tom: F
   INTRO & VERSE (only one is played with clean guitar and the other distorted)
e-|---------------------------------------------------------------------------------|
B-|-5555------3333-5555-5555------3333-5555-5555------3333-5555-5555------3333-5555|
G-|-5555------3333-5555-5555------3333-5555-5555------3333-5555-5555------3333-5555|
D-|-5555-3333-3333-5555-5555-3333-3333-5555-5555-3333-3333-5555-5555-3333-3333-5555|
A-|-3333-3333-1111-3333-3333-3333-1111-3333-3333-3333-1111-3333-3333-3333-1111-3333|
E-|------1111----------------1111----------------1111----------------1111----------|
                                p.m.--(with the "skinhead tats" part)---

   CHORUS
e-|-----------------------------------------------------------------------------|
B-|-1010-1313----------1010-1313------------------------------------------------|
G-|-1010-1212----------1010-1212---------------5555-33333333------5555-33333333-|
D-|-1010-1010-88888888-1010-1010-88888888-3333-5555-33333333-3333-5555-33333333-|
A-|--8-8------88888888--8-8------88888888-3333-3333-11111111-3333-3333-11111111-|
E-|-----------66666666-----------66666666-1111---------------1111---------------|

   INTERLUDE
e-|------------------------------------|
B-|-5-55-1-11-3-33-5--5-55-1-11-3-33-5-|
G-|-5-55-2-22-3-33-5--5-55-2-22-3-33-5-|
D-|-5-55-3-33-3-33-5--5-55-3-33-3-33-5-|
A-|-3-33-3-33-1-11-3--3-33-3-33-1-11-3-|
E-|------1-11--------------1-11--------|

==========================================================================
Composição de Matt Freeman / Tim Armstrong
3.179 exibições
    • ½ Tom
    • A
    • Bb
    • B
    • C
    • Db
    • D
    • Eb
    • E
    • F
    • F#
    • G
    • Ab
  • Adicionar à lista

    0 comentários

    Ver todos os comentários

    Conseguiu tocar?

    0 Tocaram 0 Ainda não

    Grave um vídeo tocando Jimmy And Johnny e nos envie!

    00:00 / 00:00
    outros vídeos desta música
    repetir qualidade Automático
    Outros vídeos desta música
    00:00 / 00:00
    Automático

    Cifra Club Pro

    Aproveite o Cifra Club com benefícios exclusivos e sem anúncios
    Cifra Club Pro
    Aproveite o Cifra Club com benefícios exclusivos e sem anúncios
    OK